Oops, an error
Loading. Please wait.

Im Gay Tab

version 2
version 2

Whole song

3,886 views 3 this week
3 commentsread comments
1 2 3 4 5
accurate
x 5
add to favorites
launch autoscroll
font size
0
reset
how to read this tab
guitar tuner
Tab Pro tools
  • play this tab
  • loop segment
  • change instrument
  • show fretboard
  • metronome
×
Best way to learn
"Im Gay"
Autoscroll
slow
fast
+/-
esc
set tempo
stop
Contributor
Mark plays this part all the way through the song:

E|------------------------------|
B|------------------------------|
G|-------------------------5----|
D|-5-5-5-5-4-4-4-4-2-2-2-2-5----|
A|-5-5-5-5-4-4-4-4-2-2-2-2-3----|
E|-3-3-3-3-2-2-2-2-0-0-0-0------|

[I'm gay.
So what?
Don't judge.
My butt.]

In the second verse Tom joins with this:
(I just noticed that Tom plays it on the D string but i'm too lazy to change it.)

E|------------------------------|
B|------------------------------|
G|-0-0-0-0-0-0-0-0-0/2-2-0------|
D|------------------------------|
A|------------------------------|
E|------------------------------|

E|------------------------------|
B|------------------------------|
G|-0-0-0-0-0/2-2-2-2/4-4-0------|
D|------------------------------|
A|------------------------------|
E|------------------------------|

[I'm gay.
So what?
Don't judge.
My butt.]
comments
print report bad tab
3 comments total.
0 reply
pierfifteen1 wrote on July 9 2009, 11:39 pm

did you see this on a video on youtube? because if its the version i'm thinking of its completely wrong.

0 reply
TheThirdDay wrote on October 1 2009, 02:39 pm

This: http://www.youtube.com/watch?v=az15tzUoTlQ ? 'Cause it sounds good to me...

0 reply
I wan waffle wrote on December 27 2009, 01:48 pm

Nice job, but I think it's

|-------------------------|
|-------------------------|
|-----------------------5-|
|-5-5-5-5-5-5-5-5-2-2-2-5-|
|-5-5-5-5-5-5-5-5-2-2-2-3-|
|-3-3-3-3-2-2-2-2-0-0-0---|

I want to post or [tab]
guest
You may want to rate the tab now too:
select rating
Please do not post tabs as comments. Select "correction" instead!