Oops, an error
Loading. Please wait.

Im Lost Without You Tab

version 3
version 3

Whole song

Interactive

22,961 views 18 this week
1 commentread comment
1 2 3 4 5
accurate
x 4
add to favorites
launch autoscroll
font size
0
reset
how to read this tab
guitar tuner
Tab Pro tools
  • play this tab
  • loop segment
  • change instrument
  • show fretboard
  • metronome
×
Best way to learn
"Im Lost Without You"
Autoscroll
slow
fast
+/-
esc
set tempo
stop
Contributor
Artist: Blink 182
Album: blink-182
Year:2003
Song: I'm Lost Without You
Tab: José Jesús Eddy Silva Guajardo (rayadodecorazon1@hotmail.com)


Intro:                                    
1er. Piano

e|-----------------------------------------------------------------------|
b|-----------------------------------------------------------------------|
g|--9----------9-----------9------------9--------------------------------|
d|----7-7-7-7-----6-6-6-6----7-7-7-7------6-6-6-6------------------------|
a|-----------------------------------------------------------------------|
E|-----------------------------------------------------------------------|


Chorus:

1. Guitar
e|----------------------------------------------------|
b|----------------------------------------------------|
g|----------------------------------------------------|
d|--7--7---7--7---6--6--6--6--4--4--4--4--6--6--6--6--|
a|--7--7---7--7---6--6--6--6--4--4--4--4--6--6--6--6--|
E|--5--5---5--5---4--4--4--4--2--2--2--2--4--4--4--4--|

2.Guitar
e|----------------------------------------------------|
b|----------------------------------------------------|
g|----------------------------------------------------|
d|--7--7---7--7---6--6--6--6--4--4--4--4--6--6--6--6--|
a|--x--x---x--x---x--x--x--x--x--x--x--x--x--x--x--x--|
E|--5--5---5--5---4--4--4--4--2--2--2--2--4--4--4--4--|


2do. Piano

e|--------------------------------|
b|--------------------------------|
g|----6-2-6---6-1----1-2-4-4------|
d|--------------------------------|
a|--------------------------------|
E|--------------------------------|

e|--------------------------------|
b|--------------------------------|
g|----6-2-6---6-1----1-2-4-4------|
d|--------------------------------|
a|--------------------------------|
E|--------------------------------|

e|--------------------------------|
b|--------------------------------|
g|----6-2-6-6---1-2-4-4-4---------|
d|---------7-7--------------------|
a|--------------------------------|
E|--------------------------------|


Chorus:
1. Guitar
e|----------------------------------------------------|
b|----------------------------------------------------|
g|----------------------------------------------------|
d|--7--7---7--7---6--6--6--6--4--4--4--4--6--6--6--6--|
a|--7--7---7--7---6--6--6--6--4--4--4--4--6--6--6--6--|
E|--5--5---5--5---4--4--4--4--2--2--2--2--4--4--4--4--|

2.Guitar
e|----------------------------------------------------|
b|----------------------------------------------------|
g|----------------------------------------------------|
d|--7--7---7--7---6--6--6--6--4--4--4--4--6--6--6--6--|
a|--x--x---x--x---x--x--x--x--x--x--x--x--x--x--x--x--|
E|--5--5---5--5---4--4--4--4--2--2--2--2--4--4--4--4--|

for 2nd verse, i'd just play the chorus, just alot softer.




e|---------------------------------------------|
b|--10---10---10---10---12---12---12---12------|
g|-----9----9----9----9----9----9----9----9----|
d|---------------------------------------------|
a|---------------------------------------------|
E|---------------------------------------------|



<<<---------------------------------------------------------------------->>>



e|------------------------------------------------------------|
b|------------------------------------------------------------|
g|--2-------4--------6-----2----2---4---4---4---2------6---4--|
d|------------------------------------------------------------|
a|------------------------------------------------------------|
E|------------------------------------------------------------|
    I     swear     that   I   can  go  on  forever    again

e|------------------------------------------------------------|
b|------------------------------------------------------------|
g|--2-------4--------6-----2----2---4---4---4---2------6---4--|
d|------------------------------------------------------------|
a|------------------------------------------------------------|
E|------------------------------------------------------------|
  please   let       me   know that my one bad day    will end

e|------------------------------------------------------------|
b|------------------------------------------------------------|
g|--2-------1------2-/4----2----4---4---4---2------6------4---|
d|------------------------------------------------------------|
a|------------------------------------------------------------|
E|------------------------------------------------------------|
    I      will      go   down  as your lover,    your friend

e|-------------------------------------------------------------------|
b|-------------------------------------------------------------------|
g|--2-------4--------6-----2----4----4----4-----4--2----2-----6---4--|
d|-------------------------------------------------------------------|
a|-------------------------------------------------------------------|
E|-------------------------------------------------------------------|
   give     me      your  lips  and  with  one  kiss    we    begin

e|------------------------------------------|
b|------------------------------------------|
g|--2-----6------2------6------6-----2--4---|
d|------------------------------------------|
a|------------------------------------------|
E|------------------------------------------|
   Are   you   afraid   of   being   alone

e|------------------------------------------|
b|------------------------------------------|
g|--2-----6---2----2----4-----6--6-----2----|
d|------------------------------------------|
a|------------------------------------------|
E|------------------------------------------|
   cause  I   am, I'm  lost  without  you

e|------------------------------------------|
b|------------------------------------------|
g|--2-----6------2------6-----6------2--4---|
d|------------------------------------------|
a|------------------------------------------|
E|------------------------------------------|
   are   you   afraid   of leaving  tonight

e|------------------------------------------|
b|------------------------------------------|
g|--2-----6---2----2----4-----6--6-----2----|
d|------------------------------------------|
a|------------------------------------------|
E|------------------------------------------|
   cause  I   am, I'm  lost  without  you


e|-------------------------------------------------------|
b|-------------------------------------------------------|
g|--2------4----6----2----2-4---4-4----4--2-----6----4---|
d|-------------------------------------------------------|
a|-------------------------------------------------------|
E|-------------------------------------------------------|
   I'll  leave  my  room  open  till  sunrise  for  you

e|---------------------------------------------------|
b|---------------------------------------------------|
g|--2-----4----6----2----2-4---4-4----4--2---6---4---|
d|---------------------------------------------------|
a|---------------------------------------------------|
E|---------------------------------------------------|
   I'll  keep  my  eyes  patiently  focused  on  you

e|---------------------------------------------------------------|
b|---------------------------------------------------------------|
g|--2-------1----2-/4----2----4---4---4---4--4--2----22--4/6---4-|
d|---------------------------------------------------------------|
a|---------------------------------------------------------------|
E|---------------------------------------------------------------|
   where   are   you    now   I  can hear footsteps, I'm dreaming

e|---------------------------------------------------------------|
b|---------------------------------------------------------------|
g|--2-----4----6----2----2-4--4----4----4--2----22----4/6----4---|
d|---------------------------------------------------------------|
a|---------------------------------------------------------------|
E|---------------------------------------------------------------|
   and   if  you  will, keep  me  from  waking  to  believe  this


e|------------------------------------------|
b|------------------------------------------|
g|--2-----6------2------6------6-----2--4---|
d|------------------------------------------|
a|------------------------------------------|
E|------------------------------------------|
   Are   you   afraid   of   being   alone


e|------------------------------------------|
b|------------------------------------------|
g|--2-----6---2----2----4-----6--6-----2----|
d|------------------------------------------|
a|------------------------------------------|
E|------------------------------------------|
   cause  I   am, I'm  lost  without  you


e|------------------------------------------|
b|------------------------------------------|
g|--2-----6------2------6-----6------2--4---|
d|------------------------------------------|
a|------------------------------------------|
E|------------------------------------------|
   are   you   afraid   of leaving  tonight


e|------------------------------------------|
b|------------------------------------------|
g|--2-----6---2----2----4-----6--6-----2----|
d|------------------------------------------|
a|------------------------------------------|
E|------------------------------------------|
   cause  I   am, I'm  lost  without  you


e|------------------------------------------|
b|------------------------------------------|
g|--2-----6------2------6------6-----2--4---|
d|------------------------------------------|
a|------------------------------------------|
E|------------------------------------------|
   Are   you   afraid   of   being   alone


e|------------------------------------------|
b|------------------------------------------|
g|--2-----6---2----2----4-----6--6-----2----|
d|------------------------------------------|
a|------------------------------------------|
E|------------------------------------------|
   cause  I   am, I'm  lost  without  you


e|------------------------------------------|
b|------------------------------------------|
g|--2-----6------2------6-----6------2--4---|
d|------------------------------------------|
a|------------------------------------------|
E|------------------------------------------|
   are   you   afraid   of leaving  tonight


e|------------------------------------------|
b|------------------------------------------|
g|--2-----6---2----2----4-----6--6-----2----|
d|------------------------------------------|
a|------------------------------------------|
E|------------------------------------------|
   cause  I   am, I'm  lost  without  you


e|------------------------------------------|
b|------------------------------------------|
g|--2-----6------2------6------6-----2--4---|
d|------------------------------------------|
a|------------------------------------------|
E|------------------------------------------|
   Are   you   afraid   of   being   alone


e|------------------------------------------|
b|------------------------------------------|
g|--2-----6---2----2----4-----6--6-----2----|
d|------------------------------------------|
a|------------------------------------------|
E|------------------------------------------|
   cause  I   am, I'm  lost  without  you


e|------------------------------------------|
b|------------------------------------------|
g|--2-----6------2------6-----6------2--4---|
d|------------------------------------------|
a|------------------------------------------|
E|------------------------------------------|
   are   you   afraid   of leaving  tonight


e|------------------------------------------|
b|------------------------------------------|
g|--2-----6---2----2----4-----6--6-----2----|
d|------------------------------------------|
a|------------------------------------------|
E|------------------------------------------|
   cause  I   am, I'm  lost  without  you



e|------------------------------------------|
b|------------------------------------------|
g|--2-----6---2----2----4-----6--6-----2----|
d|------------------------------------------|
a|------------------------------------------|
E|------------------------------------------|
   cause  I   am, I'm  lost  without  you


e|------------------------------------------|
b|------------------------------------------|
g|--2-----6---2----2----4-----6--6-----2----|
d|------------------------------------------|
a|------------------------------------------|
E|------------------------------------------|
   cause  I   am, I'm  lost  without  you


e|------------------------------------------|
b|------------------------------------------|
g|--2-----6---2----2----4-----6--6-----2----|
d|------------------------------------------|
a|------------------------------------------|
E|------------------------------------------|
   cause  I   am, I'm  lost  without  you


e|------------------------------------------|
b|------------------------------------------|
g|--2-----6---2----2----4-----6--6-----2----|
d|------------------------------------------|
a|------------------------------------------|
E|------------------------------------------|
   cause  I   am, I'm  lost  without  you


e|------------------------------------------|
b|------------------------------------------|
g|--2-----6---2----2----4-----6--6-----2----|
d|------------------------------------------|
a|------------------------------------------|
E|------------------------------------------|
   cause  I   am, I'm  lost  without  you
comments
print report bad tab
1 comment total.
+1 reply
asthenia_rules wrote on April 23 2005, 12:00 am

That's for the easy guitar on this...... I guess?

I want to post or [tab]
guest
You may want to rate the tab now too:
select rating
Please do not post tabs as comments. Select "correction" instead!