Oops, an error
Loading. Please wait.

Im Lost Without You Tab

version 4
version 4

Whole song

Interactive

7,417 views 3 this week
1 commentread comment
1 2 3 4 5
accurate
x 6
add to favorites
launch autoscroll
font size
0
reset
how to read this tab
guitar tuner
Tab Pro tools
  • play this tab
  • loop segment
  • change instrument
  • show fretboard
  • metronome
×
Best way to learn
"Im Lost Without You"
Autoscroll
slow
fast
+/-
esc
set tempo
stop
Difficulty
novice
This is 100% Correct, I figured it and, damn it so easy...I know some guys who 
will look at this would say never ever, but it's correct...
All what you her ein the song is mostly done by Piano.

so here it goes.


Intro - Tom never played Intro on guitar


Chorus 2x (Are you....)
e]-----------------------------------------------------------------------]
b]-----------------------------------------------------------------------]
g]-----------------------------------------------------------------------]
d]--7-7-7-7-7-7-7--6-6-6-6-6-6-6-4-4-4-4-4-4-4-6-6-6-6-6-6-6-------------]
a]--xxxxxxxxxxxxx--xxxxxxxxxxxxx-xxxxxxxxxxxxx-xxxxxxxxxxxxx-------------]
E]--5-5-5-5-5-5-5--4-4-4-4-4-4-4-2-2-2-2-2-2-2-4-4-4-4-4-4-4-------------]


Chorus End on (let ring)
e]----]
b]----]
g]----]
d]-7~-]
a]-x--]
E]-5~-]

Verse x4 (In 4th play just end after 7 Power Chord with one strum 9 Power Chord)
e]------------------------------------------------------------------]
b]------------------------------------------------------------------]
g]------------------------------------------------------------------]
d]-4-4-4-4-4-4-4-4-6-6-6-6-6-6-6-6-7-7-7-7-7-7-7-7-9-9-9-9-9-9-9-9--]
a]-x-x-x-x-x-x-x-x-x-x-x-x-x-x-x-x-x-x-x-x-x-x-x-x-x-x-x-x-x-x-x-x--]
E]-2-2-2-2-2-2-2-2-4-4-4-4-4-4-4-4-5-5-5-5-5-5-5-5-5-5-5-5-5-5-5-5--]

Chorus 2x (Are you....)
e]-----------------------------------------------------------------------]
b]-----------------------------------------------------------------------]
g]-----------------------------------------------------------------------]
d]--7-7-7-7-7-7-7--6-6-6-6-6-6-6-4-4-4-4-4-4-4-6-6-6-6-6-6-6-------------]
a]--xxxxxxxxxxxxx--xxxxxxxxxxxxx-xxxxxxxxxxxxx-xxxxxxxxxxxxx-------------]
E]--5-5-5-5-5-5-5--4-4-4-4-4-4-4-2-2-2-2-2-2-2-4-4-4-4-4-4-4-------------]

Interlude
Can be played in 2 Version like this:

Interlude 4x
e]-----------------------------------------------------------------------]
b]--10---10---10---10---12---12---12---12--------------------------------]
g]-----9----9----9----9----9----9----9----9------------------------------]
d]-----------------------------------------------------------------------]
a]-----------------------------------------------------------------------]
E]-----------------------------------------------------------------------]

Or this Interlude x4:

e]--5---5---5---5---7---7---7---7----------------------------------------]
b]----5---5---5---5---5---5---5---5--------------------------------------]
g]-----------------------------------------------------------------------]
d]-----------------------------------------------------------------------]
a]-----------------------------------------------------------------------]
E]-----------------------------------------------------------------------]

[Guitar break, Piano starts it's solo]


Chorus (play til drum solo) instead of the Chorus you also can play Interlude til Drum Solo

e]-----------------------------------------------------------------------]
b]-----------------------------------------------------------------------]
g]-----------------------------------------------------------------------]
d]--7-7-7-7-7-7-7--6-6-6-6-6-6-6-4-4-4-4-4-4-4-6-6-6-6-6-6-6-------------]
a]--xxxxxxxxxxxxx--xxxxxxxxxxxxx-xxxxxxxxxxxxx-xxxxxxxxxxxxx-------------]
E]--5-5-5-5-5-5-5--4-4-4-4-4-4-4-2-2-2-2-2-2-2-4-4-4-4-4-4-4-------------]

Chorus End on (let ring)
e]----]
b]----]
g]----]
d]-7~-]
a]-x--]
E]-5~-]

After that you'r done, let the solo play and listen to the amazing end of an amazing song. ;)

It's easy too learn and of blink's best song ever.Have fun.

tabbed by BredC
comments
print report bad tab
1 comment total.
0 reply
pokemonshotz wrote on August 21 2015, 10:18 am

Perfect good job!

I want to post or [tab]
guest
You may want to rate the tab now too:
select rating
Please do not post tabs as comments. Select "correction" instead!