Oops, an error
Loading. Please wait.

Josie Bass Tab

version 2
version 2

Whole song

Interactive

4,084 views 1 this week
2 commentsread comments
1 2 3 4 5
worth learning
x 9
add to favorites
launch autoscroll
font size
0
reset
guitar tuner
Tab Pro tools
  • play this tab
  • loop segment
  • change instrument
  • show fretboard
  • metronome
Autoscroll
slow
fast
+/-
esc
set tempo
stop
This is tab is 100% correct unlike the other "Josie" tabs on this website.
The rhythym of the Intro is hard to tab, so listen to the CD for it. Very simple,
just repetitive.

INTRO
G|-2-------2-------2-------2-------44444444444444442222222222222222|
D|---------------------------------44444444666666664444444444444444|
A|-----------------------------------------------------------------|
E|-----------------------------------------------------------------|

G|44444444444444442222222222222222|
D|44444444666666664444444444444444|
A|--------------------------------|
E|--------------------------------|

G|44444444444444448888888822222222|
D|44444444666666666666666644444444|
A|--------------------------------|
E|--------------------------------|

G|4444444444444444222222222--------|
D|4444444466666666444444444--------|
A|---------------------------------|
E|---------------------------------|

VERSE
G|---------------------------------------------------------------|
D|---------------------------------------------------------------|
A|22222222------------------------2222222244444444777777777777777|
E|--------222222220000000000000000-------------------------------|

G|-------------------------------------------------------------------------------|
D|-------------------------------------------------------------------------------|
A|22222222------------------------222222224444444477777777777777722222222--------|
E|--------22222222-00-000-000-000------------------------------------------------|

G|---------------------------------------------------------------|
D|---------------------------------------------------------------|
A|22222222------------------------2222222244444444777777777777777|
E|--------222222220000000000000000-------------------------------|

G|---------------------------------------------------------------|
D|---------------------------------------------------------------|
A|22222222------------------------2222222244444444777777777777777|
E|--------22222222-00-000-000-000--------------------------------|

G|----------------------------------------------------------------|
D|----------------------------------------------------------------|
A|--------------------------------22222222222222222222222222222222|
E|22222222222222220000000000000000--------------------------------|

G|----------------------------------------------------------------|
D|----------------------------------------------------------------|
A|----------------4444444444444444--------------------------------|
E|2222222222222222----------------00000000000000000000000000000000|

CHORUS
G|--------------------------------|
D|--------------------------------|
A|22222222------------------------|
E|--------222222220000000044442222|

G|-------------------------------------------------|
D|-------------------------------------------------|
A|22222222------------------------222222222--------|
E|--------222222220000000044442222-----------------|

VERSE
G|---------------------------------------------------------------|
D|---------------------------------------------------------------|
A|22222222------------------------2222222244444444777777777777777|
E|--------222222220000000000000000-------------------------------|

G|---------------------------------------------------------------|
D|---------------------------------------------------------------|
A|22222222------------------------2222222244444444777777777777777|
E|--------22222222-00-000-000-000--------------------------------|

G|----------------------------------------------------------------|
D|----------------------------------------------------------------|
A|--------------------------------22222222222222222222222222222222|
E|22222222222222220000000000000000--------------------------------|

G|----------------------------------------------------------------|
D|----------------------------------------------------------------|
A|----------------4444444444444444--------------------------------|
E|2222222222222222----------------00000000000000000000000000000000|

CHORUS
G|--------------------------------|
D|--------------------------------|
A|22222222------------------------|
E|--------222222220000000044442222|

G|--------------------------------|
D|--------------------------------|
A|22222222------------------------|
E|--------222222220000000044442222|

G|--------------------------------|
D|--------------------------------|
A|22222222------------------------|
E|--------222222220000000044442222|

G|-------------------------------------------------|
D|-------------------------------------------------|
A|22222222------------------------222222222--------|
E|--------222222220000000044442222-----------------|

BRIDGE
G|44444444444444442222222222222222|
D|44444444666666664444444444444444|
A|--------------------------------|
E|--------------------------------|

G|44444444444444442222222222222222|
D|44444444666666664444444444444444|
A|--------------------------------|
E|--------------------------------|

G|44444444444444448888888822222222|
D|44444444666666666666666644444444|
A|--------------------------------|
E|--------------------------------|

G|4444444444444444222222222--------|
D|4444444466666666444444444--------|
A|---------------------------------|
E|---------------------------------|

CHORUS
G|--------------------------------|
D|--------------------------------|
A|22222222------------------------|
E|--------222222220000000044442222|

G|--------------------------------|
D|--------------------------------|
A|22222222------------------------|
E|--------222222220000000044442222|

G|--------------------------------|
D|--------------------------------|
A|22222222------------------------|
E|--------222222220000000044442222|

G|-----------------------------------------|
D|-----------------------------------------|
A|22222222------------------------222222222|
E|--------222222220000000044442222---------|

That's all of it. Repeatetive and easy. I'm 99.999% sure that this tab is perfect
but there may be a few mistakes somewhere.
comments
print report bad tab
2 comments total.
0 reply
NuttyBob wrote on December 2 2002, 12:00 am

I made a mistake at the end: it ends with one abrupt B. Not 8. Sorry about that.

0 reply
HiMyNameIsMatt wrote on September 12 2007, 01:52 pm

intro is waaaay off man

|--4--4--4--4--|
|-----4--6--2--|
|--------------|
|--------------|

shud be those notes,
maybe u just wrote it out wrong accidentally

I want to post or [tab]
guest
You may want to rate the tab now too:
select rating
Please do not post tabs as comments. Select "correction" instead!