Oops, an error
Loading. Please wait.

Josie Bass Tab

version 4
version 4

Whole song

Interactive

6,487 views 39 this week
1 commentread comment
1 2 3 4 5
excellent!
x 9
add to favorites
launch autoscroll
font size
0
reset
guitar tuner
Tab Pro tools
  • play this tab
  • loop segment
  • change instrument
  • show fretboard
  • metronome
×
Best way to learn
"Josie"
Autoscroll
slow
fast
+/-
esc
set tempo
stop
Contributor
Difficulty
novice
~ = Let ring
* = Palm mute

[Opening]

G|4~~--------4~~--------4~~--------4~~-----|
D|4~~--------4~~--------4~~--------4~~-----|
A|-----------------------------------------|
E|-----------------------------------------|

[Bass Intro]
(This is debatable on whether he alternate picks the notes, or just strums them 
together like chords.
I go with alternate picking because I think it sounds more accurate.)

G|--4-4-4-4---4-4-4-4---4-4-4-4-4-4-4-4----|
D|-4-4-4-4---6-6-6-6---2-2-2-2-2-2-2-2-----|
A|-----------------------------------------|
E|-----------------------------------------| x2

G|--4-4-4-4---4-4-4-4---8-8-8-8---4-4-4-4--|
D|-4-4-4-4---6-6-6-6---6-6-6-6---2-2-2-2---|
A|-----------------------------------------|
E|-----------------------------------------|

G|--4-4-4-4---4-4-4-4---4-4-444444~--------|
D|-4-4-4-4---6-6-6-6---2-2--222222~--------|
A|-----------------------------------------|
E|-----------------------------------------|

[Verse 1]

G|-----------------------------------------------------------------------|
D|-----------------------------------------------------------------------|
A|-22222222---------------------------22222222-44444444-7777777777777777-|
E|----------22222222-0000000000000000------------------------------------|

G|-----------------------------------------------------------------------|
D|-----------------------------------------------------------------------|
A|-22222222---------------------------22222222-44444444-7777777777777777-|
E|----------22222222-000-000-000-000-------------------------------------|
                     *** *** *** ***

G|-----------------|
D|-----------------|
A|-22222222-2------|
E|-----------------|
"Yeah, just because..."

[Verse 2]

G|-----------------------------------------------------------------------|
D|-----------------------------------------------------------------------|
A|-22222222---------------------------22222222-44444444-7777777777777777-|
E|----------22222222-0000000000000000------------------------------------|

G|-----------------------------------------------------------------------|
D|-----------------------------------------------------------------------|
A|-22222222---------------------------22222222-44444444-7777777777777777-|
E|----------22222222-000-000-000-000-------------------------------------|
                     *** *** *** ***

The 7's can also be played on the open E string. I usually do 7 the first time, and open 
E the second time.

[Bridge]

G|----------------------------------------------------------------------|
D|----------------------------------------------------------------------|
A|------------------0000000000000000-22222222222222222222222222222222---|
E|-2222222222222222-----------------------------------------------------|

G|----------------------------------------------------------------------|
D|----------------------------------------------------------------------|
A|------------------4444444444444444------------------------------------|
E|-2222222222222222------------------00000000000000000000000000000000---|

[Chorus]

G|-------------------------------------|
D|-------------------------------------|
A|-22222222----------------------------|
E|----------22222222-00000000-44442222-| x2

End with

G|------------|
D|------------|
A|-22222222-2-|
E|------------|
"Fiiiiiiiiine..."

[Verse 2 again]

[Bridge again]

[Chorus 2]

G|-------------------------------------|
D|-------------------------------------|
A|-22222222----------------------------|
E|----------22222222-00000000-44442222-| x4

End with

G|------------|
D|------------|
A|-22222222-2-|
E|------------|
"Fiiiiiiiiine..."

[Bass Intro again]

[Ending Chorus]

G|-------------------------------------|
D|-------------------------------------|
A|-22222222----------------------------|
E|----------22222222-00000000-44442222-| x4

And end with

G|------------|
D|------------|
A|-2----------| End on this note
E|------------|
"Fine!"
comments
print report bad tab
1 comment total.
0 reply
Punkfender wrote on March 1 2013, 11:48 am

This is great :D

I want to post or [tab]
guest
You may want to rate the tab now too:
select rating
Please do not post tabs as comments. Select "correction" instead!