Oops, an error
Loading. Please wait.

Kaleidoscope intro tab

version 3
version 3

Intro

Whole song

Interactive

531 views 1 this week
2 commentsread comments
1 2 3 4 5
x 4
add to favorites
×
Save as Personal and add changes to this tab that will be seen only by you. Learn more ›
×
You can save this tab as Personal to edit and correct it or add notes. All changes will be seen only by you. Learn more »
launch autoscroll
font size
0
reset
how to read this tab
guitar tuner
edit
Autoscroll
slow
fast
+/-
esc
set tempo
stop
Not a lot of tabs that display the accuracy of the actual song,
and the overall tonality it presents, my first tab and it sounds
like the song's opening guitar riff.


e---------------------------------------------------------------|
b---------------------------------------------------------------|
g---------------------------------------------------------------|
d-12-11--9---7-------7--777777----------------------------------|
a-11-11--9---7-------5--555555----------------------------------|
D--9--9--9---7-------5--555555----------------------------------|

e---------------------------------------------------------------|
b---------------------------------------------------------------|
g---------------------------------------------------------------|
d-12-11--9---7-------5--555555----------------------------------|
a-11-11--9---7-------5--555555----------------------------------|
D--9--9--9---7-------5--555555----------------------------------|

            
            
Suggest correction
Creating personal tab
Creating personal tab
You can edit any tab online and save it as your Personal.

You can edit, replace or remove any tab part or add personal notes – all changes will be seen only by you.

Personal tabs can be accessed anytime from any device, even offline.
Learn more »
comments
print report bad tab
2 comments total.
0 reply
HH_Emo_666 242 Nov 02, 2011 12:39 PM

"Not a lot of tabs that sound good."

Are you high?

This is only the intro. Also, you have the right bass notes, but the other ones are still wrong. I'm pretty sure versions 3 and 4 are about 100% correct.

0 reply
Guitar Skater 449 Nov 02, 2011 03:35 PM

the guys who tabbed this in drop D got it right, this is atrocious

guest
You may want to rate the tab now too:
select rating
Wanna post a correction for this tab? Suggest correction