Oops, an error
Loading. Please wait.

Kaleidoscope bass

version 3
version 3

Whole song

Interactive

1,451 views 1 this week
2 commentsread comments
1 2 3 4 5
1 last vote to show rating
add to favorites
×
Save as Personal and add changes to this tab that will be seen only by you. Learn more ›
×
You can save this tab as Personal to edit and correct it or add notes. All changes will be seen only by you. Learn more »
launch autoscroll
font size
0
reset
guitar tuner
edit
Autoscroll
slow
fast
+/-
esc
set tempo
stop
-------------------------------------------------------------------------------
                        KALEIDOSCOPE - blink-182
-------------------------------------------------------------------------------

Tabbed By : Thero35
email: loganschuette@aol.com

Tuning: Drop-D GDAD

I came to find a tab for this song but it was poorly rated, so I decided to make my own. 
It is in
Drop-D which is kind of odd for a blink song seeing they usually play in the Standard 
GDAE form (or at
least Mark does on bass), but I am pretty sure it is correct. If there are words in the 
parentheses, it
is telling which word to strum on. It is a great song with great lyrics. Feel free
to fix, comment, and rate.

No Bass in the Intro

Verse(first 5 2s: Stop, Stop, Just, I, want; rest is the break part)
G|------------------------------------------|
D|------------------------------------------|
A|-2~-2~-2~-2~2-------0-0-0-2-2-2-0-0-0--2~-|
D|--------------0-0-0-----------------------|

G|------------------|
D|---------55555555-|
A|-22222222---------| x4
D|------------------|

Pre-Chorus
G|-----------|
D|-5555-7777-|
A|-----------| x2
D|-----------|

Chorus
G|-------------------------------------|    G|----|
D|-------------------------------------|    D|----|
A|-------------------------------------| x2 A|-2~-|
D|-00000000-77777777-44444444-55555555-|    D|----|

Verse 2
G|------------------|
D|---------55555555-|
A|-22222222---------| x8
D|------------------|

Second Pre-chorus (No reason, No silence, Nobody, Up By)
G|--------------|
D|--------------|
A|--------------|
D|-0~-7~-9~-97~-|

Chorus 2
G|-------------------------------------|
D|-------------------------------------|
A|-------------------------------------|
E|-55555555-77777777-00000000-77777777-|

G|-------------------------------------|    G|----------------------|
D|-------------------------------------|    D|----------------------|
A|-------------------------------------| x3 A|----------------------|
D|-44444444-55555555-00000000-77777777-|    D|-44444444-55555555-5~-|

Bridge (Come in at about 2:20)
G|-------------------------------------|    G|----|
D|-------------------------------------|    D|----|
A|-------------------------------------| x2 A|-0~-|
D|-00000000-55555555-00000000-22222222-|    D|----|

Chorus/Outro
G|-------------------------------------|    G|----|
D|-------------------------------------|    D|----|
A|-------------------------------------| x4 A|----|
D|-00000000-77777777-44444444-55555555-|    D|-5~-|


| /  slide up
| \  slide down
| h  hammer-on
| p  pull-off
| ~  vibrato
| +  harmonic
| x  Mute note
===============================================================================

            
            
Suggest correction
Creating personal tab
Creating personal tab
You can edit any tab online and save it as your Personal.

You can edit, replace or remove any tab part or add personal notes – all changes will be seen only by you.

Personal tabs can be accessed anytime from any device, even offline.
Learn more »
Give kudos to tab author, rate the tab!
1 2 3 4 5
comments
print report bad tab
2 comments total.
0 reply
HH_Emo_666 242 Mar 13, 2012 09:43 AM

your chorus is wrong

0 reply
Thero35 93 Mar 13, 2012 06:22 PM

which one, or both?

guest
You may want to rate the tab now too:
select rating
Wanna post a correction for this tab? Suggest correction