Oops, an error
Loading. Please wait.

Kaleidoscope tab

version 4
version 4

Whole song

Interactive

6,916 views 6 this week
3 commentsread comments
1 2 3 4 5
x 5
add to favorites
×
Save as Personal and add changes to this tab that will be seen only by you. Learn more ›
×
You can save this tab as Personal to edit and correct it or add notes. All changes will be seen only by you. Learn more »
launch autoscroll
font size
0
reset
how to read this tab
guitar tuner
edit
Autoscroll
slow
fast
+/-
esc
set tempo
stop
Drop D.

Intro:
e|--------------------------------------|
B|--------------------------------------|
G|--------------------------------------|
D|-12-11-9-9--7--------12-11-9--9--5----|
A|-9--9--9-12-5--------9--9--9--12-5----|
D|-9--9--9-9--5--------9--9--9--9--5----| x2

Verse:
e|---------------|
B|-----------7---|
G|-7-------7-----|
D|-----7-------7-|
A|---------------|
D|---------------| x2 (The intro is playing in the background.)

Intrumental:
e|--------------------------------------------------------------------------|
B|-3-----------3------------------------------------------------------------|
G|-2--2--2--2--4--2--2--2---------------------------------------------------|
D|-0-----2-----4-----2------------------------------------------------------|
A|-------0-----------0------------------------------------------------------|
D|--------------------------------------------------------------------------|

Intro plays again. (Only once though.)

Verse 2:
e|-------------------------|
B|----------7-7-8-7--------|
G|-7-(x12)-----------------|
D|-------------------------|
A|-------------------------|
D|-------------------------| x2 (The intro is playing in the background.)

Pre-chorus:
e|--------------------------------------------------------------------------|
B|--------------------------------------------------------------------------|
G|-9\7-7-7-7-7-7---9\7-7-7-7-7-7--------------------------------------------|
D|-x-x-x-x-x-x-x---x-x-x-x-x-x-x--------------------------------------------|
A|-7\5-5-5-5-5-5---7\5-5-5-5-5-5--------------------------------------------|
D|--------------------------------------------------------------------------|

Chorus 1:
e|-------------------------------------------------|
B|-------------------------------------------------|
G|-------------------------------------------------|
D|-0-0-0-0-7-7-0-0-0-0-7-7-4-4-4-4-4-4-5-5-5-5-5-5-|
A|-0-0-0-0-7-7-0-0-0-0-7-7-4-4-4-4-4-4-5-5-5-5-5-5-|
D|-0-0-0-0-7-7-0-0-0-0-7-7-4-4-4-4-4-4-5-5-5-5-5-5-| x2

Pre-verse:
e|-----------------------|
B|-----------------------|
G|-----------------------|
D|-9-9-9-9-7-7-7-7-7-7-7-|
A|-9-9-9-9-5-5-5-5-5-5-5-|
D|-9-9-9-9-5-5-5-5-5-5-5-| x2

Verse 2. (This time it's x4 and with pre-verse playing in the background.)
The Pre-verse becomes more powerful after x2 of the verse.

Intrumental with Tom singing.

Chorus 2:
e|--------------------------------------------------------------------------|
B|--------------------------------------------------------------------------|
G|-9\7-7-7-7-7-7---9\7-7-7-7-7-7--------------------------------------------|
D|-x-x-x-x-x-x-x---x-x-x-x-x-x-x--------------------------------------------|
A|-7\5-5-5-5-5-5---7\5-5-5-5-5-5--------------------------------------------|
D|--------------------------------------------------------------------------|

e|-------------------------------------------------|
B|-------------------------------------------------|
G|-------------------------------------------------|
D|-0-0-0-0-7-7-0-0-0-0-7-7-4-4-4-4-4-4-5-5-5-5-5-5-|
A|-0-0-0-0-7-7-0-0-0-0-7-7-4-4-4-4-4-4-5-5-5-5-5-5-|
D|-0-0-0-0-7-7-0-0-0-0-7-7-4-4-4-4-4-4-5-5-5-5-5-5-| x4

e|------------------------------------------|
B|-7-8-10-7-8-10-7~---7-5---7-5---7~--------| They are only played
G|------------------------7-----7-----------| during the 4's and 5's.
D|------------------------------------------|
A|------------------------------------------|
D|------------------------------------------| x2


Interlude:
Part 1:
e|---------------------------------------------|Listen for strumming pattern.
B|---------------------------------------------|
G|---------------------------------------------|
D|--------------5-7---------------------2------|
A|-5-7-9-7-5-7--5-5---------5-7-9-7-5-7-2------|
D|-0-0-0-0-0-0--5-5---------0-0-0-0-0-0-2------| x2
Part 2: Part 1 is playing in the background.
e|------------------------------------------|
B|------------------------------------------|
G|------------------------------------------|
D|-0------------5-7-------0-------------2---| Listen for strumming pattern.
A|-0------------5-5-------0-------------2---|
D|-0------------5-5-------0-------------2---| x2


Chorus 3 is chorus 1 played x4 instead of x2. The notes from chorus 2 are playing 
in the background.
e|------------------------------------------|
B|-7-8-10-7-8-10-7~---7-5---7-5---7~--------|
G|------------------------7-----7-----------|
D|------------------------------------------|
A|------------------------------------------|
D|------------------------------------------|

e|------------------------------------------|
B|-7-8-10-7-8-10-7~---7-5---7-5-------------|
G|------------------------7-----7~----------| Let it ring out.
D|------------------------------------------|
A|------------------------------------------|
D|------------------------------------------|

            
            
Suggest correction
Creating personal tab
Creating personal tab
You can edit any tab online and save it as your Personal.

You can edit, replace or remove any tab part or add personal notes – all changes will be seen only by you.

Personal tabs can be accessed anytime from any device, even offline.
Learn more »
comments
print report bad tab
3 comments total.
+1 reply
HH_Emo_666 242 Oct 18, 2011 07:58 AM

Excelent tab. Nothing wrong with it, just the song itself. I just hate how the "Pre-verse," is different from the intro. It just really annoys me. Anybody else feel the same way?

0 reply
Guitar Skater 459 Oct 18, 2011 06:58 PM

very good tab man

0 reply
Armalon 20 Oct 18, 2011 11:59 PM

Prefect tab!

guest
You may want to rate the tab now too:
select rating
Wanna post a correction for this tab? Suggest correction