Oops, an error
Loading. Please wait.

Kings Of The Weekend Bass Tab

version 1
version 1

Whole song

  • Complete song with complete accuracy.

Interactive

847 views 36 this week
no commentswrite comment
1 2 3 4 5
x 5
add to favorites
launch autoscroll
font size
0
reset
guitar tuner
Autoscroll
slow
fast
+/-
esc
set tempo
stop
Help us to improve Ultimate-Guitar.com Take our survey!
×
Author
Difficulty
intermediate
About this tab version
Complete song with complete accuracy. Was this info helpful? Yes No
----------------------- KINGS OF THE WEEKEND - Blink 182 -------------------- 
 Tabbed By : Brian Wells   Tuning: Standard


Verse 1
G|------------------------------------------------|
D|------------------------------------------------|
A|---------------------------------3-3-3-3---3-3-5| X2
E|3-3-3-3----3-3-3-3----0-0-0-0-------------------|


Chorus 1
G|---------------------------------------------------------------|
D|---------------------------------------------------------------|
A|---------------------------------------------------------------|
E|3-3-3-3-3-3-3-3-3-3-3-3-3-3-3-3-3-3-3-3-3-3-3-3-3-3-3-3-2-2-2-2|

G|---------------------------------------------------------------|
D|--------------------------------------------------------5-5-5-5|
A|3-3-3-3-3-3-3-3-3-3-3-3-3-3-5-5--------------------------------|
E|--------------------------------3-3-3-3-3-3-3-3-3-3-3-3--------|

G|---------------------------------------------------------------|
D|---------------------------------------------------------------|
A|---------------------------------------------------------------|
E|3-3-3-3-3-3-3-3-3-3-3-3-3-3-3-3-3-3-3-3-3-3-3-3-3-3-3-3-2-2-2-2|

G|---------------------------------------------------------------|
D|------------------------------------------------5---5---5---5--|
A|3-3-3-3-3-3-3-3-3-3-3-3-3-3-5-5--------------------------------|
E|--------------------------------3-3-3-3-3-3-3-3----------------|

G|-----------------------------------------------------------------------------------|
D|----9-----9---9-----5-----5---5-----5-----5---5-----5-----5---5-----9-----9---9----|
A|7-7---7-7---7---3-3---3-3---3-----------------------------------7-7---7-7---7------|
E|--------------------------------3-3---3-3---3---3-3---3-3---3-------------------7/0|

G|----------------|
D|----------------|
A|2-3-2----2-3-2--|
E|------3--------3|


Verse 2
G|------------------------------------------------|
D|------------------------------------------------|
A|---------------------------------3-3-3-3---3-3-5|
E|3-3-3-3----3-3-3-3----0-0-0-0-------------------|

G|---------------------------------------------------------------|
D|---------------------------------------------------------------|
A|---------------------------------------------------------------|
E|3-3-3-3-3-3-3-3-3-3-3-3-3-3-3-3-3-3-3-3-3-3-3-3-3-3-3-3-2-2-2-2|

G|---------------------------------------------------------------|
D|---------------------------------------------------------------|
A|--------------------------------3-3-3-3-3-3-3-3-3-3-3-3-3-3-5-5|
E|0-0-0-0-0-0-0-0-0-0-0-0-0-0-0-0--------------------------------|


Chorus 2
G|---------------------------------------------------------------|
D|---------------------------------------------------------------|
A|---------------------------------------------------------------|
E|3-3-3-3-3-3-3-3-3-3-3-3-3-3-3-3-3-3-3-3-3-3-3-3-3-3-3-3-2-2-2-2|

G|---------------------------------------------------------------|
D|--------------------------------------------------------5-5-5-5|
A|3-3-3-3-3-3-3-3-3-3-3-3-3-3-5-5--------------------------------|
E|--------------------------------3-3-3-3-3-3-3-3-3-3-3-3--------|

G|---------------------------------------------------------------|
D|---------------------------------------------------------------|
A|---------------------------------------------------------------|
E|3-3-3-3-3-3-3-3-3-3-3-3-3-3-3-3-3-3-3-3-3-3-3-3-3-3-3-3-2-2-2-2|

G|---------------------------------------------------------------|
D|------------------------------------------------5---5---5---5--|
A|3-3-3-3-3-3-3-3-3-3-3-3-3-3-5-5--------------------------------|
E|--------------------------------3-3-3-3-3-3-3-3----------------|

G|-----------------------------------------------------------------------------------|
D|----9-----9---9-----5-----5---5-----5-----5---5-----5-----5---5-----9-----9---9----|
A|7-7---7-7---7---3-3---3-3---3-----------------------------------7-7---7-7---7------|
E|--------------------------------3-3---3-3---3---3-3---3-3---3-------------------7\0|

G|----------------------------------------------------|
D|----------------------------------------------------|
A|2-3-2----2-3-2-------------2-3-2----2-3-2-----------|
E|------3--------3--3-3-3-3--------3--------3--3-3-3-3|


Bridge
G|---------------------------------------------------------------|
D|---------------------------------------------------------------|
A|7-7-7-7-7-7-7-7-7-7-7-7-7-7-7-7-3-3-3-3-3-3-3-3-3-3-3-3-3-3-3-3|
E|---------------------------------------------------------------|

G|----------------------------------------------------|
D|----------------------------------------------------|
A|2-3-2----2-3-2-------------2-3-2----2-3-2-----------|
E|------3--------3--3-3-3-3--------3--------3--3-3-3-3|

G|---------------------------------------------------------------|
D|---------------------------------------------------------------|
A|--------------------------------3-3-3-3-3-3-3-3-3-3-3-3-5-5-5-5|
E|0-0-0-0-0-0-0-0-0-0-0-0-0-0-0-0--------------------------------|


Chorus 3
G|---------------------------------------------------------------|
D|---------------------------------------------------------------|
A|---------------------------------------------------------------|
E|3-3-3-3-3-3-3-3-3-3-3-3-3-3-3-3-3-3-3-3-3-3-3-3-3-3-3-3-2-2-2-2|

G|---------------------------------------------------------------|
D|--------------------------------------------------------5-5-5-5|
A|3-3-3-3-3-3-3-3-3-3-3-3-3-3-5-5--------------------------------|
E|--------------------------------3-3-3-3-3-3-3-3-3-3-3-3--------|

G|---------------------------------------------------------------|
D|---------------------------------------------------------------|
A|---------------------------------------------------------------|
E|3-3-3-3-3-3-3-3-3-3-3-3-3-3-3-3-3-3-3-3-3-3-3-3-3-3-3-3-2-2-2-2|

G|---------------------------------------------------------------|
D|------------------------------------------------5---5---5---5--|
A|3-3-3-3-3-3-3-3-3-3-3-3-3-3-5-5--------------------------------|
E|--------------------------------3-3-3-3-3-3-3-3----------------|

G|-----------------------------------------------------------------------------------|
D|----9-----9---9-----5-----5---5-----5-----5---5-----5-----5---5-----9-----9---9----|
A|7-7---7-7---7---3-3---3-3---3-----------------------------------7-7---7-7---7------|
E|--------------------------------3-3---3-3---3---3-3---3-3---3-------------------7\0|

G|---------------------------|
D|---------------------------|
A|2-3-2----2-3-2-------------|
E|------3--------3--3-3-3-3--|





| /  slide up
| \  slide down
| h  hammer-on
| p  pull-off
| ~  vibrato
| +  harmonic
| x  Mute note
Suggest correction
comments
print report bad tab
guest
You may want to rate the tab now too:
select rating
Wanna post a correction for this tab? Suggest correction