Oops, an error
Loading. Please wait.
We have Chord Pro version of Kings Of The Weekend.
It's the closest thing you can get to the original song and it has interactive parts. Check out the tab »
×
5,326 views 57 this week
no commentswrite comment
1 2 3 4 5
x 6
add to favorites
×
Save as Personal and add changes to this tab that will be seen only by you. Learn more ›
×
You can save this tab as Personal to edit and correct it or add notes. All changes will be seen only by you. Learn more »
launch autoscroll
font size
0
reset
how to read this tab
guitar tuner
edit
Autoscroll
slow
fast
+/-
esc
set tempo
stop
Author
Blink-182: Kings of the Weekend


[Verse 1]

Guitar 1
e|-------------------------------------------|
B|-------------------------------------------|
G|----------------------------5-5-5-5--5-5/7-| (x2)
D|-5-5-5-5--5-5-5-5--2-2-2-2--5-5-5-5--5-5/7-|
A|-5-5-5-5--5-5-5-5--2-2-2-2--3-3-3-3--3-3/5-|
E|-3-3-3-3--3-3-3-3--0-0-0-0-----------------|
   * * * *  * * * *  * * * *  * * * *

Guitar 2 (Comes in after first repetition of above chord progression)
e|----------------7-------10-8-7------|
B|---8---10---8-------8----------8----|
G|-7---7----7---7---7---7-------------| (x2) 
D|------------------------------------|
A|------------------------------------|
E|------------------------------------|


[Chorus 1]

e|------------------------------------------------------------------------------------------------|
B|------------------------------------------------------------------------------------------------|
G|-----------------------------------------------------------------5--5-5-5-5-5-5-----------------|
D|-5--5-5-5-5-5-5--5--5-5-5-5-5-5--5--5-5-5-5-5-5--5--5-5-5-5-5-5--5--5-5-5-5-5-5--5--5-5-5-5-5-5-|
A|-5--5-5-5-5-5-5--5--5-5-5-5-5-5--5--5-5-5-5-5-5--5--5-5-5-5-5-5--3--3-3-3-3-3-3--5--5-5-5-5-5-5-|
E|-3--3-3-3-3-3-3--3--3-3-3-3-3-3--3--3-3-3-3-3-3--3--3-3-3-3-3-3------------------3--3-3-3-3-3-3-|

e|------------------------------------------------------------------------------------------------|
B|------------------------------------------------------------------------------------------------|
G|-----------------------------------------------------------------5--5-5-5-5-5-5-----------------|
D|-5--5-5-5-5-5-5--5--5-5-5-5-5-5--5--5-5-5-5-5-5--5--5-5-5-5-5-5--5--5-5-5-5-5-5--5--5-5-5-5-5-5-|
A|-5--5-5-5-5-5-5--5--5-5-5-5-5-5--5--5-5-5-5-5-5--5--5-5-5-5-5-5--3--3-3-3-3-3-3--5--5-5-5-5-5-5-|
E|-3--3-3-3-3-3-3--3--3-3-3-3-3-3--3--3-3-3-3-3-3--3--3-3-3-3-3-3------------------3--3-3-3-3-3-3-|
 
e|------------|
B|------------|
G|------------|
D|-5--5--5--5-|
A|-5--5--5--5-|
E|-3--3--3--3-|


[Interlude]

e|------------------------------|
B|------------------------------|
G|-4/5/4-----4/5/4--------------|
D|-4/5/4-5-5-4/5/4-5--5-5-5-5-5-|
A|-2/3/2-5-5-2/3/2-5--5-5-5-5-5-|
E|-------3-3-------3--3-3-3-3-3-|


[Verse 2]

Guitar 1
e|-------------------------------------------|
B|-------------------------------------------|
G|----------------------------5-5-5-5--5-5/7-|
D|-5-5-5-5--5-5-5-5--2-2-2-2--5-5-5-5--5-5/7-|
A|-5-5-5-5--5-5-5-5--2-2-2-2--3-3-3-3--3-3/5-|
E|-3-3-3-3--3-3-3-3--0-0-0-0-----------------|
   * * * *  * * * *  * * * *  * * * *

e|--------------------------------------------------------------------------------------------------|
B|--------------------------------------------------------------------------------------------------|
G|--------------------------------------------------------------------------------------------------| 
D|-5-5-5-5-5-5-5-5-5-5-5-5-5-5-5-5-5-5-5-5-5-5-5-5-5-5-5-5-5-5-5-5--2-2-2-2-2-2-2-2-2-2-2-2-2-2-2-2-|
A|-5-5-5-5-5-5-5-5-5-5-5-5-5-5-5-5-5-5-5-5-5-5-5-5-5-5-5-5-5-5-5-5--2-2-2-2-2-2-2-2-2-2-2-2-2-2-2-2-|
E|-3-3-3-3-3-3-3-3-3-3-3-3-3-3-3-3-3-3-3-3-3-3-3-3-3-3-3-3-3-3-3-3--0-0-0-0-0-0-0-0-0-0-0-0-0-0-0-0-|
   * * * * * * * * * * * * * * * * * * * * * * * * * * * * * * * *  * * * * * * * * * * * * * * * *  

e|----------------------------------------------------------------|
B|----------------------------------------------------------------|
G|-5-5-5-5-5-5-5-5-5-5-5-5--5-5/7-7-7-7-7-7-7-7-7-7-7-7-7-7-7-7-7-| 
D|-5-5-5-5-5-5-5-5-5-5-5-5--5-5/7-x-x-x-x-x-x-x-x-x-x-x-x-x-x-x-x-|
A|-3-3-3-3-3-3-3-3-3-3-3-3--3-3/5-5-5-5-5-5-5-5-5-5-5-5-5-5-5-5-5-|
E|----------------------------------------------------------------|
   * * * * * * * * * * * * 

Guitar 2 (Comes in after first chord progression)
e|-7-7-7-7-7-7-7-7-7-7-7-7-8-8-8-8-7-7-7-7-7-7-7-7-7-7-7-7-8-8-8-8-7-7-7-7-7-7-7-7-7-7-7-|
B|---------------------------------------------------------------------------------------|
G|---------------------------------------------------------------------------------------|
D|---------------------------------------------------------------------------------------|
A|---------------------------------------------------------------------------------------|
E|---------------------------------------------------------------------------------------|

e|------------------------------------|
B|-10-8-8-8-8-8-8-8-8-8-8-8-8-8-8-8-8-|
G|------------------------------------|
D|------------------------------------|
A|------------------------------------|
E|------------------------------------|


[Chorus 2]

e|------------------------------------------------------------------------------------------------|
B|------------------------------------------------------------------------------------------------|
G|-----------------------------------------------------------------5--5-5-5-5-5-5-----------------|
D|-5--5-5-5-5-5-5--5--5-5-5-5-5-5--5--5-5-5-5-5-5--5--5-5-5-5-5-5--5--5-5-5-5-5-5--5--5-5-5-5-5-5-|
A|-5--5-5-5-5-5-5--5--5-5-5-5-5-5--5--5-5-5-5-5-5--5--5-5-5-5-5-5--3--3-3-3-3-3-3--5--5-5-5-5-5-5-|
E|-3--3-3-3-3-3-3--3--3-3-3-3-3-3--3--3-3-3-3-3-3--3--3-3-3-3-3-3------------------3--3-3-3-3-3-3-|

e|------------------------------------------------------------------------------------------------|
B|------------------------------------------------------------------------------------------------|
G|-----------------------------------------------------------------5--5-5-5-5-5-5-----------------|
D|-5--5-5-5-5-5-5--5--5-5-5-5-5-5--5--5-5-5-5-5-5--5--5-5-5-5-5-5--5--5-5-5-5-5-5--5--5-5-5-5-5-5-|
A|-5--5-5-5-5-5-5--5--5-5-5-5-5-5--5--5-5-5-5-5-5--5--5-5-5-5-5-5--3--3-3-3-3-3-3--5--5-5-5-5-5-5-|
E|-3--3-3-3-3-3-3--3--3-3-3-3-3-3--3--3-3-3-3-3-3--3--3-3-3-3-3-3------------------3--3-3-3-3-3-3-|
 
e|------------|
B|------------|
G|------------|
D|-5--5--5--5-|
A|-5--5--5--5-|
E|-3--3--3--3-|


[Interlude]

e|----------------------------------------------------------------------------------|
B|----------------------------------------------------------------------------------|
G|-4-4-4-4-4-4-4-4--5-5-5-5-5-5-5-5------------------------------4-4-4-4-4-4-4-4--5-|
D|-4-4-4-4-4-4-4-4--5-5-5-5-5-5-5-5--5-5-5-5-5-5-5-5-5-5-5-5--5--4-4-4-4-4-4-4-4--5-|
A|-2-2-2-2-2-2-2-2--3-3-3-3-3-3-3-3--5-5-5-5-5-5-5-5-5-5-5-5--5--2-2-2-2-2-2-2-2--3-|
E|-----------------------------------3-3-3-3-3-3-3-3-3-3-3-3--3---------------------|
   * * * * * * * *  * * * * * * * *  * * * * * * * * *   *       * * * * * * * *

e|----------------------------------------------------------------3-------3--------3-------3-|
B|-------------------------------------------------------------------------------------------|
G|-4/5/4-----4/5/4--------------4/5/4-----4/5/4-------------4h5p4---4h5p4----4h5p4---4h5p4---|(x2)
D|-4/5/4-5-5-4/5/4-5--5-5-5-5-5-4/5/4-5-5-4/5/4-5-5-5-5-5-5----------------------------------|
A|-2/3/2-5-5-2/3/2-5--5-5-5-5-5-2/3/2-5-5-2/3/2-5-5-5-5-5-5----------------------------------|
E|-------3-3-------3--3-3-3-3-3-------3-3-------3-3-3-3-3-3----------------------------------|


[Chorus 3]

Guitar 1
e|------------------------------------------------------------------------------------------------|
B|------------------------------------------------------------------------------------------------|
G|-----------------------------------------------------------------5--5-5-5-5-5-5-----------------|
D|-5--5-5-5-5-5-5--5--5-5-5-5-5-5--5--5-5-5-5-5-5--5--5-5-5-5-5-5--5--5-5-5-5-5-5--5--5-5-5-5-5-5-|
A|-5--5-5-5-5-5-5--5--5-5-5-5-5-5--5--5-5-5-5-5-5--5--5-5-5-5-5-5--3--3-3-3-3-3-3--5--5-5-5-5-5-5-|
E|-3--3-3-3-3-3-3--3--3-3-3-3-3-3--3--3-3-3-3-3-3--3--3-3-3-3-3-3------------------3--3-3-3-3-3-3-|

e|------------------------------------------------------------------------------------------------|
B|------------------------------------------------------------------------------------------------|
G|-----------------------------------------------------------------5--5-5-5-5-5-5-----------------|
D|-5--5-5-5-5-5-5--5--5-5-5-5-5-5--5--5-5-5-5-5-5--5--5-5-5-5-5-5--5--5-5-5-5-5-5--5--5-5-5-5-5-5-|
A|-5--5-5-5-5-5-5--5--5-5-5-5-5-5--5--5-5-5-5-5-5--5--5-5-5-5-5-5--3--3-3-3-3-3-3--5--5-5-5-5-5-5-|
E|-3--3-3-3-3-3-3--3--3-3-3-3-3-3--3--3-3-3-3-3-3--3--3-3-3-3-3-3------------------3--3-3-3-3-3-3-|
 
e|------------|
B|------------|
G|------------|
D|-5--5--5--5-|
A|-5--5--5--5-|
E|-3--3--3--3-|

Guitar 2 (Comes in after first chord progression)
e|-7-7-8-8-10-10-----------7-7----------7-7-8-8-10-10-----7-7-10-10---------|
B|---------------8-8-10-10----10-10-8-8---------------8-8-----------8-8-8-8-|
G|--------------------------------------------------------------------------|
D|--------------------------------------------------------------------------|
A|--------------------------------------------------------------------------|
E|--------------------------------------------------------------------------|

e|-7-7-8-8-10-10-----------7-7-----------7-7-8-8-10-10-7-7-8-8-10-10------------|
B|---------------8-8-10-10-----10-10-8-8-----------------------------8-8-8-8----|
G|------------------------------------------------------------------------------|
D|------------------------------------------------------------------------------|
A|------------------------------------------------------------------------------|
E|------------------------------------------------------------------------------|


[Outro]

e|----------------------------------------------------------------------------------|
B|----------------------------------------------------------------------------------|
G|-4-4-4-4-4-4-4-4--5-5-5-5-5-5-5-5------------------------------4-4-4-4-4-4-4-4--5-|
D|-4-4-4-4-4-4-4-4--5-5-5-5-5-5-5-5--5-5-5-5-5-5-5-5-5-5-5-5--5--4-4-4-4-4-4-4-4--5-|
A|-2-2-2-2-2-2-2-2--3-3-3-3-3-3-3-3--5-5-5-5-5-5-5-5-5-5-5-5--5--2-2-2-2-2-2-2-2--3-|
E|-----------------------------------3-3-3-3-3-3-3-3-3-3-3-3--3---------------------|
   * * * * * * * *  * * * * * * * *  * * * * * * * * *   *       * * * * * * * *

e|------------------------------|
B|------------------------------|
G|-4/5/4-----4/5/4--------------|
D|-4/5/4-5-5-4/5/4-5--5-5-5-5-5-|
A|-2/3/2-5-5-2/3/2-5--5-5-5-5-5-|
E|-------3-3-------3--3-3-3-3-3-|


Key:
| x   Dead note
| h   Hammer-on
| p   Pull-off
| /   Slide
| *  Palm mute

            
            
Suggest correction
Creating personal tab
Creating personal tab
You can edit any tab online and save it as your Personal.

You can edit, replace or remove any tab part or add personal notes – all changes will be seen only by you.

Personal tabs can be accessed anytime from any device, even offline.
Learn more »
comments
print report bad tab
guest
You may want to rate the tab now too:
select rating
Wanna post a correction for this tab? Suggest correction