Oops, an error
Loading. Please wait.

Lifes So Boring tab

version 5
version 5

Whole song

Interactive

76 views 1 this week
no commentswrite comment
1 2 3 4 5
3 more votes to show rating
add to favorites
×
Save as Personal and add changes to this tab that will be seen only by you. Learn more ›
×
You can save this tab as Personal to edit and correct it or add notes. All changes will be seen only by you. Learn more »
launch autoscroll
font size
0
reset
how to read this tab
guitar tuner
edit
Autoscroll
slow
fast
+/-
esc
set tempo
stop
Author
Difficulty
-------------------------------------------------------------------------------
                             Life's so boring - blink-182
-------------------------------------------------------------------------------

Tabbed by: Strobber

Tuning: Standard, however if you can, tune down just a little bit to get the 
        perfect sound. Standard works fine though.

This tab is 100% correct. Trust me. It's a very simple song

Main riff/intro:

Only in the beginning of the riff you
play 5 twice, the rest is like shown behind the lines

e|--------------|-----------------
B|--------------|-----------------
G|------0---0---|---0---0---------
D|--5-5---5---5-|-5---5---5-------
A|--------------|-----------------
E|--------------|-----------------

Verse:

Two ways to play, both sound the 
same, Play whichever way you feel
more comfortable

e|--------------------------------
B|--------------------------------
G|------------4----5--------------
D|--5----7----4----5--------------
A|--5----7----2----3--------------
E|--3----5------------------------

Or:

e|--------------------------------
B|--------------------------------
G|-------2----4----5--------------
D|--5----2----4----5--------------
A|--5----0----2----3--------------
E|--3-----------------------------

Chorus:

e|--------------------------------
B|--------------------------------
G|-----------7---7-5-4------------
D|--5-(5)-(5)--5------------------
A|--------------------------------
E|--------------------------------

Ot:

e|--------------------------------
B|--------------------------------
G|-0-(0)(0)7-0-7-5-4--------------
D|--------------------------------
A|--------------------------------
E|--------------------------------

You can play the notes in the parentheses
but don't have to, they're not too
dominant so it's not very noticeable

-------------------------------------------------

Main riff x8
Verse x4
Main riff x8
Verse x2
Chorus x8
Main riff x10
Verse x2
Chorus x8 (this time end with a 0 on the G string)
Main Riff x16

That't it! Have fun, it's a good song for beginners :)

            
            
Suggest correction
Creating personal tab
Creating personal tab
You can edit any tab online and save it as your Personal.

You can edit, replace or remove any tab part or add personal notes – all changes will be seen only by you.

Personal tabs can be accessed anytime from any device, even offline.
Learn more »
Give kudos to tab author, rate the tab!
1 2 3 4 5
comments
print report bad tab
guest
You may want to rate the tab now too:
select rating
Wanna post a correction for this tab? Suggest correction