Oops, an error
Loading. Please wait.

Los Angeles bass

2,275 views 3 this week
1 commentread comment
1 2 3 4 5
x 7
add to favorites
×
Save as Personal and add changes to this tab that will be seen only by you. Learn more ›
×
You can save this tab as Personal to edit and correct it or add notes. All changes will be seen only by you. Learn more »
launch autoscroll
font size
0
reset
guitar tuner
edit
Autoscroll
slow
fast
+/-
esc
set tempo
stop
Song: Los Angeles
Band: blink-182
Album: California
Bassist: Mark Hoppus
Tuning: Standard

If there are any mistakes or if you have any suggestions please contact me. ;)

[Verse] 

G|-------------------------------------------------------------------|
D|-------------------------------------------------------------------|
A|-4-4-4-4-4-4-4-4-4-4-4-4-4-4-4-4--0-0-0-0-0-0-0-0-0-0-0-0-0-0-0-0--|  4x
E|-------------------------------------------------------------------|

Little break, no bass

[Chorus]

G|------------------------------------------------------------------|
D|------------------------------------------------------------------|
A|---------------------------------0-0-0-0-0-0-0-0-0-0-0-0-0-0-0-0--|
E|-2-2-2-2-2-2-2-2-2-2-2-2-2-2-2-2----------------------------------|

G|------------------------------------------------------------------------|
D|------------------------------------------------------------------------|
A|---------------------------------0-0-0-0-0-0-0-0--2-2-2-2-2-2-2-2--4-4--|
E|-2-2-2-2-2-2-2-2-2-2-2-2-2-2-2-2----------------------------------------|

[Verse] ::You can play it palm muted or not. Try what sounds better for you::

G|-------------------------------------------------------------------|
D|-------------------------------------------------------------------|
A|-4-4-4-4-4-4-4-4-4-4-4-4-4-4-4-4--0-0-0-0-0-0-0-0-0-0-0-0-0-0-0-0--|  6x
E|-------------------------------------------------------------------|

G|---|
D|---|
A|-0-|
E|---|

[Chorus]

G|------------------------------------------------------------------|
D|------------------------------------------------------------------|
A|---------------------------------0-0-0-0-0-0-0-0-0-0-0-0-0-0-0-0--|  2x
E|-2-2-2-2-2-2-2-2-2-2-2-2-2-2-2-2----------------------------------|

G|-------------------------------------------------------------------|
D|-------------------------------------------------------------------|
A|-9-9-9-9-9-9-9-9-9-9-9-9-9-9-9-9--0-0-0-0-0-0-0-0-0-0-0-0-0-0-0-0--|
E|-------------------------------------------------------------------|

G|--------------------------------------------------------------------------|
D|--------------------------------------------------------------------------|
A|-9-9-9-9-9-9-9-9-9-9-9-9-9-9-9-9--0-0-0-0-0-0-0-0--2-2-2-2-2-2-2-2--4~~~--|
E|--------------------------------------------------------------------------|

[Bridge]

G|-9--8--6-----9--8--6--9---9--8--6-----9--8--6---9-9-9-9-9-9-9-9--|
D|-9--9--4-----9--9--4--7---9--9--4-----9--9--4---7-7-7-7-7-7-7-7--|
A|-----------------------------------------------------------------|
E|-----------------------------------------------------------------|

G|------------------------------------------------------------------|
D|------------------------------------------------------------------|
A|-----------------2-2-2-2-2-2-2-2----------------------------------|
E|-0-0-0-0-0-0-0-0-----------------2-2-2-2-2-2-2-2-2-2-2-2-2-2-2-2--|

G|------------------------------------------------------------------|
D|------------------------------------------------------------------|
A|-----------------2-2-2-2-2-2-2-2-----------------0-0-0-0-0-0-0-0--|
E|-0-0-0-0-0-0-0-0-----------------0-0-0-0-0-0-0-0------------------|

G|--------------------------------------------------------------------|
D|--------------------------------------------------------------------|
A|-----------------6-6-6-6-6-6-6-6--4-4-4-4-4-4-4-4--0-0-0-0-0-0-0-0--|
E|-0-0-0-0-0-0-0-0----------------------------------------------------|

G|------------------------------------------------------------------|
D|------------------------------------------------------------------|
A|-----------------2-2-2-2-2-2-2-2-----------------0-0-0-0-0-0-0-0--|
E|-0-0-0-0-0-0-0-0-----------------0-0-0-0-0-0-0-0------------------|

G|------|
D|------|
A|-4~~~~|
E|--4~~~|

[Chorus]

G|--------------------------------------------------------------------|
D|--------------------------------------------------------------------|
A|---------------------------------0-0-0-0-0-0-0-0--9-9-9-9--7-7-7-7--|
E|-2-2-2-2-2-2-2-2-2-2-2-2-2-2-2-2------------------------------------|

G|-------------------------------------------------------------------|
D|-------------------------------------------------------------------|
A|---------------------------------0-0-0-0-0-0-0-0--2-2-2-2-2-2-2-2--|
E|-2-2-2-2-2-2-2-2-2-2-2-2-2-2-2-2-----------------------------------|

G|-----------------------------------------------------------------------|
D|-----------------------------------------------------------------------|
A|-4-4-4-4-4-4-4-4--6-6-6-6--7-7-7-7--0-0-0-0-0-0-0-0--9-9-9-9--7-7-7-7--|
E|-----------------------------------------------------------------------|

G|-----------------------------------------------------------------------|
D|-----------------------------------------------------------------------|
A|-4-4-4-4-4-4-4-4--6-6-6-6--7-7-7-7--0-0-0-0-0-0-0-0--9-9-9-9--7-7-7-7--|
E|-----------------------------------------------------------------------|

G|---------------------------------------------------------------------------------------------------|
D|---------------------------------------------------------------------------------------------------|
A|---------------------------------0-0-0-0-0-0-0-0-0-0-0-0-0-0-0-0--9-9-9-9-9-9-9-9-9-9-9-9-9-9-9-9--|
E|-2-2-2-2-2-2-2-2-2-2-2-2-2-2-2-2-------------------------------------------------------------------|

G|-----------------------------------------|
D|-----------------------------------------|
A|-0-0-0-0-0-0-0-0--2-2-2-2-2-2-2-2--4~~~--|
E|-----------------------------------------|

************************************

| x   Dead note
| g   Grace note
| (n) Ghost note
| h   Hammer-on
| p   Pull-off
| r   Release
| >   Accented note
| t   Tapping
| b   Bend
| br  Bend release
| pb  Pre-bend
| pbr Pre-bend release
| /   Slide up
| \   Slide down
| ~   Vibrato
| s   Slap
| P   Pop
| PM  Palm mute
| TR  Trill
| N   Tremolo

************************************

            
            
Suggest correction
Creating personal tab
Creating personal tab
You can edit any tab online and save it as your Personal.

You can edit, replace or remove any tab part or add personal notes – all changes will be seen only by you.

Personal tabs can be accessed anytime from any device, even offline.
Learn more »
comments
print report bad tab
1 comment total.
0 reply
boardermonty 20 Oct 12, 2016 02:32 PM

Could you post times?

guest
You may want to rate the tab now too:
select rating
Wanna post a correction for this tab? Suggest correction