Oops, an error
Loading. Please wait.

Los Angeles tab

version 2
version 2

Whole song

763 views 9 this week
no commentswrite comment
1 2 3 4 5
1 last vote to show rating
add to favorites
×
Save as Personal and add changes to this tab that will be seen only by you. Learn more ›
×
You can save this tab as Personal to edit and correct it or add notes. All changes will be seen only by you. Learn more »
launch autoscroll
font size
0
reset
how to read this tab
guitar tuner
edit
Autoscroll
slow
fast
+/-
esc
set tempo
stop
Author
Difficulty
blink-182: Los Angeles Tabbed By Cody Chapman

Album: California
Tuning: E Standard

This Song In The Beginning Has Very Faint And Quiet Parts That Are Option To Play,
But I Still Put Down What I Could Hear Anyways, Other Than That This Is As Accurate
As I Could Get It, So Enjoy!

Video Tutorial Soon:

[Intro] 

e|---------------------------------------------------------------------------|
B|-------9----9--------------------------------------------------------------|
G|---6-6--6-6-----6-6 (x16)--------------------------------------------------|
D|---------------------------------------------------------------------------|
A|---------------------------------------------------------------------------|
E|---------------------------------------------------------------------------|

[Verse] [Guitar Is Faint But It's At "Whoa Listen To The Sound As They Bomb The 6th Street Bridge"]

e|---------------------------------------------------------------------------|
B|---------------------------------------------------------------------------|
G|--6--------9---------11----------------------------------------------------|
D|--x--(x16) x--(x8)---x--(x8)-----------------------------------------------|
A|--4--------7---------9-----------------------------------------------------|
E|---------------------------------------------------------------------------|

[Pre-Chorus] (2nd Time Saying "Los Angeles When Will You Save Me?")
e|---------------------------------------------------------------------------|
B|--14----14----14----14---------10---10--10---------------------------------|
G|-----14----14----14----14---------9---9------------------------------------|
D|---------------------------------------------------------------------------|
A|---------------------------------------------------------------------------|
E|---------------------------------------------------------------------------|


[Chorus] ("Los Angeles. When Will You Save Me?!")

e|---------------------------------------------------------------------------|
B|---------------------------------------------------------------------------|
G|---------------------------------------------------------------------------|
D|---------------------------------------------------------------------------|(Repeat Phrase 2 Times)
A|--4-4-4-4-4-4-4-4-6-6-6-6-7-7-7-7-----------------9-9-9-9-7-7-7-7----------|
E|----------------------------------5-5-5-5-5-5-5-5--------------------------|


[Verse 2] ("Come Down Yeah We'll Watch The Sun....")
e|---------------------------------------------------------------------------|
B|---------------------------------------------------------------------------|
G|---9-9-9-9-9-9-9-11-11-11---------9----------------------------------------|
D|---x-x-x-x-x-x-x-x-x-x-----(x3)---x---------(PickSlide)--------------------|
A|---7-7-7-7-7-7-7-9-9-9------------7----------------------------------------|
E|---------------------------------------------------------------------------|


[Chorus] ("Los Angeles. When Will You Save Me?!")

e|---------------------------------------------------------------------------|
B|---------------------------------------------------------------------------|
G|---------------------------------------------------------------------------|
D|---------------------------------------------------------------------------|(Repeat Phrase 4 Times)
A|--4-4-4-4-4-4-4-4-6-6-6-6-7-7-7-7-----------------9-9-9-9-7-7-7-7----------|
E|----------------------------------5-5-5-5-5-5-5-5--------------------------|

[Bridge]
e|---------------------------------------------------------------------------|
B|---------------------------------------------------------------------------|
G|---------------------------------------------------------------------------|
D|---------------------------------------------------------------------------|
A|---------------------------------------------------------------------------|
E|------7--2--5------7--2--5--4----------------------------------------------|

("Wake Me When This War Is Over")

e|---------------------------------------------------------------------------|
B|---------------------------------------------------------------------------|
G|-9--9-9-9-9-9-9--9--9-9-9-9-9-9---6--6-6-6-6-6-6-------------------------6-|
D|-9--9-9-9-9-9-9--9--9-9-9-9-9-9---6--6-6-6-6-6-6--7--7-7-7-7-7-7---------6-|
A|-7--7-7-7-7-7-7--6--6-6-6-6-6-6---4--4-4-4-4-4-4--7--7-7-7-7-7-7---(x4)--4-|
E|--------------------------------------------------5--5-5-5-5-5-5-----------|


[Chorus] ("Los Angeles. When Will You Save Me?!")

e|---------------------------------------------------------------------------|
B|---------------------------------------------------------------------------|
G|---------------------------------------------------------------------------|
D|---------------------------------------------------------------------------|(Repeat Phrase 4 Times)
A|--4-4-4-4-4-4-4-4-6-6-6-6-7-7-7-7-----------------9-9-9-9-7-7-7-7----------|
E|----------------------------------5-5-5-5-5-5-5-5--------------------------|



[Outro] ("I'm Never Coming Home!")


e|---------------------------------------------------------------------------|
B|---------------------------------------------------------------------------|
G|---------------------------------------------------------------------------|
D|---------------------------------------------------------------------------|(Repeat Phrase 4 Times)
A|--4-4-4-4-4-4-4-4-6-6-6-6-7-7-7-7-----------------9-9-9-9-7-7-7-7----------|
E|----------------------------------5-5-5-5-5-5-5-5--------------------------|

e|---------------------------------------------------------------------------|
B|---------------------------------------------------------------------------|
G|--6--(End On)--------------------------------------------------------------|
D|--6------------------------------------------------------------------------|
A|--4------------------------------------------------------------------------|
E|---------------------------------------------------------------------------|


************************************

| x   Dead note
| g   Grace note
| (n) Ghost note
| h   Hammer-on
| p   Pull-off
| r   Release
| >   Accented note
| t   Tapping
| b   Bend
| br  Bend release
| pb  Pre-bend
| pbr Pre-bend release
| /   Slide up
| \   Slide down
| ~   Vibrato
| s   Slap
| P   Pop
| PM  Palm mute
| TR  Trill
| N   Tremolo

************************************
Suggest correction
Creating personal tab
Creating personal tab
You can edit any tab online and save it as your Personal.

You can edit, replace or remove any tab part or add personal notes – all changes will be seen only by you.

Personal tabs can be accessed anytime from any device, even offline.
Learn more »
Give kudos to tab author, rate the tab!
1 2 3 4 5
comments
print report bad tab
guest
You may want to rate the tab now too:
select rating
Wanna post a correction for this tab? Suggest correction