Oops, an error
Loading. Please wait.

Making Of Down intro tab

version 1
version 1

Intro

73 views 3 this week
no commentswrite comment
1 2 3 4 5
3 more votes to show rating
add to favorites
×
Save as Personal and add changes to this tab that will be seen only by you. Learn more ›
×
You can save this tab as Personal to edit and correct it or add notes. All changes will be seen only by you. Learn more »
launch autoscroll
font size
0
reset
how to read this tab
guitar tuner
edit
Autoscroll
slow
fast
+/-
esc
set tempo
stop
Author
Difficulty
intermediate
Artist: blink-182
Song: Unknown Song
Part of the song: Intro

Link to riff: https://www.youtube.com/watch?v=-c57XYRjYSI 
Time of riff: 0:00-0:17

This tab is for the riff played in the "Making of Down" video on YouTube. A lot of people were asking for it
in the comments of the video. This is the best I could pick up what was being played, if there are any mistake
please leave a comment letting me know, thanks.


[Intro]

Guitar 1
e|--------------------------|--------------------------|
B|--------------------------|--------------------------|
G|--------------------------|--------------------------|
D|--------4-----4-----0~----|--------2-----4-----5~----|3X
A|--2--2-----2-----2--------|--0--0-----0-----0--------|
E|--------------------------|--------------------------|

e|--------------------------|--------------------------|
B|--------------------------|--------------------------|
G|--------------------------|--------------------------|
D|--------------------------|--------2-----4-----5--0--|
A|--------5--------5-----5--|--0--0-----0-----0--------|
E|--3--3-----3--3-----3-----|--------------------------|

e|--------------------------|--------------------------|
B|--------------------------|--------------------------|
G|--------------------------|--------------------------|
D|--------7-----4--------5--|--------5-----4-----5-----|
A|--5--5-----5-----5--5-----|--5--5-----5-----5--------|
E|--------------------------|--------------------------|

e|--------------------------|--------------------------|
B|--------------------------|--------------------------|
G|--------------------------|--------------------------|
D|--------------------------|--------2-----4-----2~----|
A|--------5--------5-----5--|--0--0-----0-----0--------|
E|--3--3-----3--3-----3-----|--------------------------|

Guitar 2 (play with guitar 1)
e|--------------------------|--------------------------|
B|--------------------------|--------------------------|
G|--------------------------|--------------------------|
D|--0--0--0--4--4--4--0--0--|--0--0--2--2--4--4--5~----|4X
A|--------------------------|--------------------------|
E|--------------------------|--------------------------|

e|--------------------------|--------------------------|
B|--------------------------|--------------------------|
G|--------------------------|--------------------------|
D|--0--0--7--0--4--0--0--5--|--5--5--4--4--5--5--4~----|
A|--------------------------|--------------------------|
E|--------------------------|--------------------------|

e|-------------------------|---------------------------|
B|-------------------------|---------------------------|
G|-------------------------|---------------------------|
D|--0--0--4--4--5--5--0--2~|----4--4--2--2--0~---------|
A|-------------------------|---------------------------|
E|-------------------------|---------------------------|



            
            
Suggest correction
Creating personal tab
Creating personal tab
You can edit any tab online and save it as your Personal.

You can edit, replace or remove any tab part or add personal notes – all changes will be seen only by you.

Personal tabs can be accessed anytime from any device, even offline.
Learn more »
Give kudos to tab author, rate the tab!
1 2 3 4 5
comments
print report bad tab
guest
You may want to rate the tab now too:
select rating
Wanna post a correction for this tab? Suggest correction