Oops, an error
Loading. Please wait.
We have an official Man Overboard tab made by UG professional guitarists. Check out the tab »
×
18,914 views 3 this week
5 commentsread comments
1 2 3 4 5
x 18
add to favorites
×
Save as Personal and add changes to this tab that will be seen only by you. Learn more ›
×
You can save this tab as Personal to edit and correct it or add notes. All changes will be seen only by you. Learn more »
launch autoscroll
font size
0
reset
how to read this tab
guitar tuner
edit
Autoscroll
slow
fast
+/-
esc
set tempo
stop
Blink 182, Man Overboard (intro).
 Tabbed by jon, raptor9787@aol.com.
  
i know that this is played on bass but i tabbed it for acoustic guitar and it sounds the way it does on the cd

Standard Tuning

---------------------------------------
---------------------------------------
---------------------------------------
---------------------------------------
-----5-3-2-----5-3-2-----5-3-2-3-2-3-2-
-3-3-------3-3-------3-3---------------

Enjoy! 
:: Ultimate Guitar Archive :: 
http://www.ultimate-guitar.com 




            
            
Suggest correction
Creating personal tab
Creating personal tab
You can edit any tab online and save it as your Personal.

You can edit, replace or remove any tab part or add personal notes – all changes will be seen only by you.

Personal tabs can be accessed anytime from any device, even offline.
Learn more »
comments
print report bad tab
5 comments total. Showing first comments.
0 reply
DerreckW 0 Mar 05, 2002 07:00 PM

wrong again zaappp

0 reply
girlesslosert40 10 Apr 28, 2002 08:00 PM

i think it sounded perfect.

0 reply
DarkMage2858 10 Oct 03, 2002 08:00 PM

on the low string u gotta play fret 3 more often

------------------------------
------------------------------
------------------------------
------------------------------
-----5--3-2-------5-3-2-------
-3-3--3--3--3-3-3--3-3--3-3-3-
and so on...play it just about after every note

guest
Wanna post a correction for this tab? Suggest correction