Oops, an error
Loading. Please wait.
We have an official Man Overboard tab made by UG professional guitarists. Check out the tab »
×
1,585 views 1 this week
2 commentsread comments
1 2 3 4 5
x 5
add to favorites
×
Save as Personal and add changes to this tab that will be seen only by you. Learn more ›
×
You can save this tab as Personal to edit and correct it or add notes. All changes will be seen only by you. Learn more »
save as personal
new!
launch autoscroll
font size
0
reset
how to read this tab
guitar tuner
Autoscroll
slow
fast
+/-
esc
set tempo
stop
Author
Posted by Sheeppig

Band: Blink 182
Song: Man Overboard (Mark, Tom and Travis show)

This version is 99% correct the only problem is the timing in some parts as im doing this at school without any music or my guitar.  There are mistakes so forgive me.

Intro

E-----------------------------------------------
B-----------------------------------------------
G-----------------------------------------------   x2
D-----------------------------------------------
A--------5-3-2-------5-3-2--------5-3-2-3-2-3-2
E—333---------333----------333------------------
This is actually just a bass part but if you want to play it keep picking the strings constantly.


    So sorry               It’s over
E-------------------------------------------
B-------------------------------------------
G------------------(2)-------------5--------
D—5----------------(2)-------------5--------
A—5—let ring-------(0)-------------3--------
E—3-----------------------------------------
Also play this when Tom starts singing

After “soon we’ll all be gone”
E----------------------------
B----------------------------
G----------------------------      x 4
D----------------------------
A----2-3-2---2---3---2---0---
E-3--------------------------

E----------------------------
B----------------------------
G----------------------------     x  4
D—5--------------------------
A-----5-7-5----5—--7---5---3---
E----------------------------

No hammering on and pulling off, trust me.

Verse

E------------------------------------
B------------------------------------
G------------------------------------
D---------------------------55555555-
A-5555555555555555-22222222-33333333-
E-3333333333333333-00000000----------
Palm muted___________________________

This part has up and down strokes or you can play super fast down strokes.

Chorus

You can lean on me     For only so long
E--------------------------------
B--------------------------------
G---------------------77777777---
D-55555555------------77777777---
A-55555555------------55555555---
E-33333333-----------------------





   Bring your friends out   and watch your.....
E------------------------------------
B------------------------------------
G-------------------------55555555---
D-2222222-----------------55555555---
A-2222222-----------------33333333---
E-0000000----------------------------

Play that for the rest of the chorus

Then play the third quarter of the intro (the 3-232 part)

Verse

E------------------------
B------------------------
G------------------------
D----5----5----5----5----
A----5----5----5----5----
E—33---33---33---33------
For the whole verse

Then chorus

Then play
         So sorry            It’s over
E---------------------------------------
B---------------------------------------
G---------------------(2)-----------5---
D—5-------------------(2)-----------5---
A—5—let ring----------(0)-----------3---
E—3-------------------------------------





After “soon we’ll all be gone”
E----------------------------
B----------------------------
G----------------------------      x 4
D----------------------------
A----2-3-2---2---3---2---0---
E-3--------------------------

E-------------------------------
B-------------------------------
G-------------------------------     x  4
D—5-----------------------------
A-----5-7-5----5—--7---5---3----
E-------------------------------


Outro
    Man on a mission           Cant say i miss him around
E----------------------------------------
B----------------------------------------
G--------------------5555555555555555----
D—5555555555555555---5555555555555555----
A—5555555555555555---3333333333333333----
E—3333333333333333-----------------------

    Insider information            Hand in your resignation
E------------------------------------------
B------------------------------------------
G---------------------5555555555555555-----
D—55555555—77777777---5555555555555555-----
A—55555555—77777777---3333333333333333-----
E—33333333—55555555------------------------





Loss of a good friend     Lost all the intentions i found
E--------------------------------------
B--------------------------------------
G--------------------5555555555555555--
D—5555555555555555---5555555555555555--
A—5555555555555555---3333333333333333--
E—3333333333333333---------------------

      Live across the nation  yeah later see you  around
E----------------------------------------
B----------------------------------------
G---------------------5555555555555555---
D—55555555—77777777---5555555555555555---
A—55555555—77777777---3333333333333333---
E—33333333—55555555----------------------

End off with a D5

Any comments(only good), corrections or praises please send to sits05@stdavids.co.za.
Suggest correction
comments
print report bad tab
2 comments total.
0 reply
sheeppig 110 Feb 12, 2002 07:00 PM

Hey y'll i made a mistake i just saw on the 323 part. After you play the root and the first 'trill' play an open A. On the 575 part after you play the first trill play 3rd on A
So itll be 3-5-7-5-3
and 0-2-3-2-0.

0 reply
guitarplaya182 10 May 09, 2002 08:00 PM

on the intro there u only play the e string 2
E:3-3-----
A:---5-3-2
k

guest
You may want to rate the tab now too:
select rating
Wanna post a correction for this tab? Suggest correction