Oops, an error
Loading. Please wait.

Mark Tom And Travis Show Tab

version 1
version 1

Album

15,337 views 24 this week
6 commentsread comments
1 2 3 4 5
accurate
x 15
add to favorites
launch autoscroll
font size
0
reset
how to read this tab
guitar tuner
Tab Pro tools
  • play this tab
  • loop segment
  • change instrument
  • show fretboard
  • metronome
×
Best way to learn
"Mark Tom And Travis Show"
Autoscroll
slow
fast
+/-
esc
set tempo
stop
Contributor
1. Dumpweed
2. Don't Leave Me
3. Alien's Exist
4. Family Reunion
5. Going Away To College
6. Whats' My Age Again?
7. Dick Lips
8. Blow Job
9. Untitled
10. Voyeur
11. Pathetic
12. Adam's Song
13. Peggy Sue
14. Wendy Clear
15. Carousel
16. All The Small Things
17. Mutt
18. Country Song
19. Dammit
20. Man Overboard


Dumpweed:

INTRO RIFF 1!
e|------------------------------------------------------------------------|
B|------------------------------------------------------------------------|
G|------------------------------------------------------------------------|
D|---6-6h7p6------------6-6h7p6----------6-6h7p6------------6-6h7p6-9-----|
A|---------------9-7----------------9--0-------------9-7--0-----------9---|
E|-0---------7-5------0---------7-5--------------7-5--------------------7-|

INTRO RIFF 2!
e|-4-0---4-0---2-0---2-0---4-0---4-0---5-0---5-0----|
B|-----0-----0-----0-----0-----0-----0-----0-----0--|
G|--------------------------------------------------|
D|--------------------------------------------------|
A|--------------------------------------------------|
E|--------------------------------------------------|

VERSE!
e|------------------------------------------------------------|
B|------------------------------------------------------------|
G|---------444444--------444444--2-22222-444444-222222-444444-|
D|-2-22222-444444-222222-444444--2-22222-444444-222222-444444-|
A|-2-22222-222222-222222-222222--0-00000-222222-000000-222222-|
E|-0-00000--------000000--------------------------------------|

***** ****** ****** ****** ***** ****** ****** ******
CHORUS!
e|----------------------------------------------------------------------|
B|----------------------------------------------------------------------|
G|----------44444444----------44444444----------44444444---------4----4-|
D|-22222222-44444444-77777777-44444444-22222222-44444444-7777777-4----4-|
A|-22222222-22222222-77777777-22222222-22222222-22222222-7777777-2----2-|
E|-00000000----------55555555----------00000000----------5555555--------|

INTERLUDE!
e|-----------------------------------------------------------------------|
B|-----------------------------------------------------------------------|
G|---------44444444----------4444444-2222222-44444444-22222222-44444444--|
D|-2222222-44444444-22222222-4444444-2222222-44444444-22222222-44444444--|
A|-2222222-22222222-22222222-2222222-0000000-22222222-00000000-22222222--|
E|-0000000----------00000000---------------------------------------------|

******* ******** ******** ******* ******* ******** ******** ********
SOLO THINGY!
e|-4-0---0---2-0---0---4-0---0---5-0---0-2--|
B|-----0---0-----0---0-----0---0-----0------|
G|------------------------------------------|
D|------------------------------------------|
A|------------------------------------------|
E|------------------------------------------|

* * * * * * * * * * * * * * * * * * * *
INTRO 1 x1 INTRO 2 x2 VERSE x2 INTRO 1 x1 CHORUS x1 INTRO 2 x2 VERSE x1
INTRO 1 x1 CHORUS x2 INTERLUDE x2 SOLO THINGY x4


Don't leave me

Intro
E|-----------------------------------------------------------|
B|-----------------------------------------------------------|
G|------------xxx7-7-77-----------7-77/9-99------------------|
D|--xxx7-7-77-xxx7-7-77-xxx9-9-99-7-77/9-99------------------|
A|--xxx7-7-77-xxx5-5-55-xxx9-9-99-5-55/7-77------------------|
E|--xxx5-5-55-----------xxx7-7-77----------------------------|

Chorus
E|-----------------------------------------------------------|
B|-----------------------------------------------------------|
G|----------------7-77-7-9-99-9------------------------------|
D|--7-77-7-9-99-9-7-77-7-9-99-9------------------------------|
A|--7-77-7-9-99-9-5-55-5-7-77-7------------------------------|
E|--5-55-5-7-77-7--------------------------------------------|

Verse Riff
E|-----------------------------------------------------------|
B|-----------------------------------------------------------|
G|-----------------------------------------------------------|
D|--7--------------------------------------------------------|
A|--5--------------------------------------------------------|
E|--5--------------------------------------------------------|

Solo
E|-----------------------------------------------------------|
B|-----------------------------------------------------------|
G|-----------------------------------------------------------|
D|--7-----------7-7-7-7-7-7-7-7-7-7-7-7-7-7-7-7--------------|
A|---------------0-0-0-0-0-0-0-0-0-0-0-0-0-0-0-0-------------|
E|-----------------------------------------------------------|
Intro x2
Verse riff
Chorus x4
Intro x2
Verse riff
Chorus x4
Solo
Chorus x4

Alien's Exist

Intro
E|-----------------------------------------------------------|
B|-----------------------------------------------------------|
G|--444444444444--4------------------------------------------|
D|--444444444444--4------------------------------------------|
A|--222222222222--2------------------------------------------|
E|-----------------------------------------------------------|

Verse riff 1
E|-----------------------------------------------------------|
B|-----------------------------------------------------------|
G|--44444444-------------------------------------------------|
D|--44444444-44444444-66666666-22222222----------------------|
A|--22222222-44444444-66666666-22222222----------------------|
E|-----------22222222-44444444-00000000----------------------| PM

Verse riff 2

E|-----------------------------------------------------------|
B|-----------------------------------------------------------|
G|--44444444-66666666----------------------------------------|
D|--44444444-66666666-66666666-22222222----------------------|
A|--22222222-44444444-66666666-22222222----------------------|
E|--------------------44444444-00000000----------------------| PM
Verse riff 3

E|-----------------------------------------------------------|
B|-----------------------------------------------------------|
G|--44444444-------------------------------------------------|
D|--44444444-22222222-66666666-22222222----------------------|
A|--22222222-22222222-66666666-22222222----------------------|
E|-----------00000000-44444444-00000000----------------------| PM

Chorus

E|---------------------------------------------------------------------|
B|---------------------------------------------------------------------|
G|--4--4444-----------4--4444------------------------------------------|
D|--4--4444--4--4444--4--4444--4--4444-------------------9---9---9---9-|
A|--2--2222--4--4444--2--2222--4--4444---6---6---6---6--7-7-7-7-7-7-7-7|
E|-----------2--2222-----------2--2222--4-4-4-4-4-4-4-4----------------| PM

E|-----------------------------------------------------------|
B|-----------------------------------------------------------|
G|--------4----------4---------------------------------------|
D|--4--2--4----4--2--4---------------------------------------|
A|--4--2--2----4--2--2---------------------------------------|
E|--2--0-------2--0------------------------------------------|

Bridge

E|-----------------------------------------------------------|
B|-----------------------------------------------------------|
G|--4-4-4-4-4-4-4-4-4-4-4-4-4-4-4-4-4-4-4-4-4-4-4-4-4-4------|
D|--x-x-x-x-x-x-x-x-x-x-x-x-x-x-x-x-x-x-x-x-x-x-x-x-x-x------|
A|--2-2-2-2-2-2-2-2-2-2-2-2-2-2-2-2-2-2-2-2-2-2-2-2-2-2------|
E|-----------------------------------------------------------|


E|-----------------------------------------------------------------|
B|-----------------------------------------------------------------|
G|--8-8-8-8-8-8-8-8-6-6-6-6-6-6-6-6-9-9-9-9-9-9-9-9-8-8-8-8-8-8-8-8|
D|--x-x-x-x-x-x-x-x-x-x-x-x-x-x-x-x-x-x-x-x-x-x-x-x-x-x-x-x-x-x-x-x|
A|--6-6-6-6-6-6-6-6-4-4-4-4-4-4-4-4-7-7-7-7-7-7-7-7-6-6-6-6-6-6-6-6|
E|-----------------------------------------------------------------|

After Bridge
E|-----------------------------------------------------------|
B|-----------------------------------------------------------|
G|--------------------------------44444444-------------------|
D|--66666666--44444444--22222222--44444444-------------------|
A|--66666666--44444444--22222222--22222222-------------------|
E|--44444444--22222222--00000000-----------------------------|

Intro (bass plays first verse by itself)
Pickslide Verse riff 1 (unmuted)
Verse riff 1 x2
Verse riff 2 x1
Verse riff 3 x1
Chorus Verse riff 1 (unmuted)
Verse riff 1 x2
Verse riff 2 x1
Verse riff 3 x1
Chorus Bridge After Bridge x2
Chorus


Family Reunion

------|
------|
--3---|
--3---| (Let It Ring)
--1---|
------|

Part A (palm mute)
---------------------------------------------|
---------------------------------------------|
---22222222-44444444-66666666-77777777-------|
---22222222-44444444-66666666-77777777-------|
---00000000-22222222-44444444-55555555-------|
---------------------------------------------| pm
Part B
---------------------------------------------|
---------------------------------------------|
---222-2----444-2---666-2---777-2------------|
---222---2--444---2-666---2-777---2----------|
---000------222-----444-----555--------------|
---------------------------------------------|
pm ... ... ... ...

Outro

---------------------------------------------|
---------------------------------------------|
---22222222-44444444-66666666-77777777-7-7---|
---22222222-44444444-66666666-77777777-7-7---|
---00000000-22222222-44444444-55555555-5-5---|
---------------------------------------------|


Going away to college

intro
E--------------------------I   E--------------------------|
B--------------------------I   B--------------------------|
G----6-6-6-6-6-------------I   G--6-6-6-6-6-4-4-4-4-4-----|
D----7-7-7-7-7---9-9-9-9-9—Ix2 D--0-0-0-0-0-0-0-0-0-0-----|x2
A----0-0-0-0-0---0-0-0-0-0—I   A--0-0-0-0-0-0-0-0-0-0-----|
E----0-0-0-0-0---0-0-0-0-0—I   E--------------------------|

Intro pt. 2 Kick in gain
E-----------------------------------------------------------------------------|
B-----------------------------------------------------------------------------|
G------------------6-----------------6-----------------6----------------------|
D---------7-----------------7-----------------7------------------9--------9---|
A----0-0-----0-0----0-0------0-0-----0-0-----0-0-------7-7-----7-7------------|
E-----------------------------------------------------------------------------| P.M


play 2x then end on
E-------------|
B-------------|
G---2~--------|
D---2~--------|
A---0~--------|
E-------------|

Prechorus (Won't forget you, I'll write you once a week she said)
E----------------------------------------------------------------------------|
B----------------------------------------------------------------------------|
G-----2-2-2-2----7-7-7-7/-9-9-9-9--------------------------------------------|
D-----2-2-2-2----7-7-7-7/-9-9-9-9--------------------------------------------|
A-----0-0-0-0----5-5-5-5/-7-7-7-7--------------------------------------------|

E---------------------------------------------------------------------------|
E---------------------------------------------------------------------------|
B---------------------------------------------------------------------------|
G---------------------------------------------------------------------------|
D--------7------7-----7------7------7------7-------9-------0----------------|
A---0-0---0-0---0-0---0-0----0-0---0-0-----0-0----0-0-----------------------|
E---------------------------------------------------------------------------| P.M

===============================================

Play Prechorus Chorus (I haven't been this scared, in a long time)
E------------------------------------------------------------------------|
B------------------------------------------------------------------------|
G----6-6-6-6-6-6-7-7-7-7-7-7--2-2-2-2-2-2--------------------------------|
D----x-x-x-x-x-x-x-x-x-x-x-x--2-2-2-2-2-2-2-2-2-2-2-2--------------------|
A----4-4-4-4-4-4-5-5-5-5-5-5--0-0-0-0-0-0-2-2-2-2-2-2--------------------|
E---------------------------------------------------0-0-0-0-0-0----------|

Back to intro pt. 1 Then Chorus


What's my age again?

Intro
e -----------------------------------------------|
b ------11----------11---------11---------11-----|
g ---11----11----11----11---11----11---11----11--|
d -9---------------------------------------------|
a ------------9----------------------------------|
E ------------------------9---------11-----------|

Riff A
e ---------------------------------------------------------------------|
b ------11----------11---------11---------11----------11---------11----|
g ---11----11----11----11---11----11---11----11----11----11---11----11-|
d -9---------------------------------------------9----------9----------|
a ------------9--------------------------------------------------------|
E ------------------------9---------9----------------------------------|


Chorus

e ------------------------------------------------------------------------------------|
b ------------------------------------------------------------------------------------|
g ------6--6------8--8----4--4--4--4-------6--6-----8---4--4--4--4-------6--6-----8---|
d -4----6--6------8--8----4--4--4--4---4---6--6-----8---4--4--4--4--4----6--6-----8---|
a -4----4--4------6--6----2--2--2--2---4---4--4-----6---2--2--2--2--4----4--4-----6---|
E -2-----------------------------------2----------------------------2-----------------|

e ------------------------------------------------------------------------------------|
b ------------------------------------------------------------------------------------|
g -8--4--4--4--4---------6--6-----8--8--8--8--8--8--8--8--6--6--6--6--6--6--6--6--6---|
d -8--2--2--4--4--4------6--6-----8--8--8--8--8--8--8--8--6--6--6--6--6--6--6--6--6---|
a -6--2--2--2--2--4------4--4-----6--6--6--6--6--6--6--6--4--4--4--4--4--4--4--4--4-2-|
E ----------------2-------------------------------------------------------------------|
Riff 2 (verse 2)
e ------------------------------------------------------------------------------------|
b ------------------------------------------------------------------------------------|
g ------------------------------------------------------------------------------------|
d ------4--4--4--4--------------6--6--6--6--8--8--8-----4--4--4--4--------------------|
a -(2)--2--2--2--2--4--4--4-----4--4--4--4--6--6--6--1--2--2--2--2--4--4--4-----------|
E ------------------2--2--2--0--------------------------------------2--2--2--0--------|

|------------------------------------------------|
Palm Muted---------------------------------------|

e ------------------------------------------------------------------------------------|
b ------------------------------------------------------------------------------------|
g ------------------------------------------------------------------------------------|
d -6--6--6--6--8--8--8--------4--4--4--4--------------6--6--6--6--8--8--8-------------|
a -4--4--4--4--6--6--6--1--1--2--2--2--2--4--4--4-----4--4--4--4--6--6--6--1----------|
E ----------------------------------------2--2--2--0----------------------------------|

|-------------------------------------Palm Muted-------------------------------------|

e ------------------------------------------------------------------------------------|
b ------------------------------------------------------------------------------------|
g ------------------------------------------------------------------------------------|
d -4--4--4--4--------------6--6--6--6--6--6--6--6--4--4--4--4--4--4--4--4-------------|
a -2--2--2--2--4--4--4--4--4--4--4--4--4--4--4--4--2--2--2--2--2--2--2--2-------------|
E -------------2--2--2--2-------------------------------------------------------------|

|-------------------------------------Palm Muted-------------------------------------|


Chorus

e ------------------------------------------------------------------------------------|
b ------------------------------------------------------------------------------------|
g ------6--6------8--8----4--4--4--4-------6--6-----8---4--4--4--4-------6--6-----8---|
d -4----6--6------8--8----4--4--4--4---4---6--6-----8---4--4--4--4--4----6--6-----8---|
a -4----4--4------6--6----2--2--2--2---4---4--4-----6---2--2--2--2--4----4--4-----6---|
E -2-----------------------------------2----------------------------2-----------------|

e ------------------------------------------------------------------------------------|
b ------------------------------------------------------------------------------------|
g -8--4--4--4--4---------6--6-----8--8--8--8--8--8--8--8--6--6--6--6--6--6--6--6--6---|
d -8--2--2--4--4--4------6--6-----8--8--8--8--8--8--8--8--6--6--6--6--6--6--6--6--6---|
a -6--2--2--2--2--4------4--4-----6--6--6--6--6--6--6--6--4--4--4--4--4--4--4--4--4-2-|
E ----------------2-------------------------------------------------------------------|


Interlude

e --------------------------------------------------------------------------------------|
b ----11------11---------11------11-----------------------------------------------------|
g --------11------11---------11------11-------------------------------------------------|
d -9------------------9---------------------------8 ^ 9-----------8 ^ 9-----------8 ^ 9-|
a -6-------------------------------------9--9--9---------9--9--9---------9--9--9--------|
E --------------------------------------------------------------------------------------|


e ------------------------------------------------------------------------------------------|
b ------------------------------------------------------------------------------------------|
g ------------------------------------------------------------------------------------------|
d ----------11--------------------11--------------------11------------------------------11--|
a ----8-------------8-------8---------------8--------8----------8--------8--------8---------|
E -9-----9----9--9-----9--9----9------9--9-----9--9-------9--9-----9--9-----9--9-----9------|


Verse 3
e ------------------------------------------------------------------------------------|
b ------------------------------------------------------------------------------------|
g ------6--6------8--8----4--4--4--4-------6--6-----8---4--4--4--4-------6--6-----8---|
d -4----6--6------8--8----4--4--4--4---4---6--6-----8---4--4--4--4--4----6--6-----8---|
a -4----4--4------6--6----2--2--2--2---4---4--4-----6---2--2--2--2--4----4--4-----6---|
E -2-----------------------------------2----------------------------2-----------------|

e ------------------------------------------------------------------------------------|
b ------------------------------------------------------------------------------------|
g -8--4--4--4--4---------6--6-----8--8--8--8--8--8--8--8--6--6--6--6--6--6--6--6--6---|
d -8--2--2--4--4--4------6--6-----8--8--8--8--8--8--8--8--6--6--6--6--6--6--6--6--6---|
a -6--2--2--2--2--4------4--4-----6--6--6--6--6--6--6--6--4--4--4--4--4--4--4--4--4-2-|
E ----------------2-------------------------------------------------------------------|

Outro e -x b -1 g -3 Let Ring on this chord to finish d -3 a -1 E -x Order of Song Intro Riff A
Chorus Riff 2 Interlude Verse 3 Outro Chords F# C# D# B Bsus2
|-------------x-|
|-------------1-|
|----6--8--4--3-|
|-4--6--8--4--3-|
|-4--4--6--2--1-|
|-2-----------x-|

Dick Lips

Intro:
e---------------------------------------------------|
b---------------------------------------------------|
g---------------------------------------------------| 2x
d-77777777-77777777-77777777--77777777--------------|
a-44444444-55555555-00000000--77777777--------------|
E---------------------------------------------------|


Verse:

e------------------------------------|
b------------------------------------|
g------------------7777777--9999999--|
d--77777777777777--7777777--9999999--|
a--77777777777777--5555555--7777777--|
E--55555555555555--------------------|

(then intro again)


Chorus:


e-----------------------------------------|
b-----------------------------------------|
g--6666666--77777777------------99999999--|
d--6666666--77777777--77777777--99999999--|
a--4444444--55555555--77777777--77777777--|
E---------------------55555555------------|
(then intro again)
(then verse again)
(then intro again)
(then chorus again)
pre solo:

e---------------------|
b---------------------|
g---------------------|
d--7-7-7-7-7-7-7-7-7--|
a--4-4-4-5-5-5-7-7-7--|
E---------------------|

solo:

e---------------------------------|
b---------------------------------|
g---------------------------------|
d----------7-6-----------7-7-7-7--|
a--7-7-7-7-5-4-2-2-2-2/5-5-5-5-5--|
E--5-5-5-5-----0-0-0-0------------|

after solo:

e---------|
b--9------|
g--7------| repeat for as many times needed
d---------|
a---------|
E---------|

Chorus:

e----------------------------------------- -------|
b-----------------------------------------last----|
g--6666666--77777777------------99999999--note----|
d--6666666--77777777--77777777--99999999-- is -7--|
a--4444444--55555555--77777777--77777777-- -7-----|
E---------------------55555555------------ -5-----|


Blow Job

e|---------------------------------------|
B|---------------------------------------|
G|--44444444-----------------------------|
D|--44444444-22222222-44444444-22222222--|
A|--22222222-22222222-44444444-22222222--|
E|-----------00000000-22222222-00000000--|

End On
e|-----|
B|-----|
G|--4--|
D|--4--|
A|--2--|
E|-----|


Untitled

Play this one time before singing beginns.

e---------------------------------------------------------|
b---------------------------------------------------------|
g-44444-4444444---------------44444-4444444---------------|
d-44444-4444444-22222-4444444-44444-4444444-22222-4444444-|
a-22222-2222222-22222-4444444-22222-2222222-22222-4444444-|
e---------------00000-2222222---------------00000-2222222-|


I think of a while ago, we might have had it all I was so stupid then, you needed time
to grow But now just as things change, as well my fellings do In time things rearange,
I am so sick of chasing... Play all the chords that are being slided to

e---------------------------------------------------------|
b---------------------------------------------------------|
g-8-8/9-9\4-4/6-6/8-8/9-9\4-4/6-4-------------------------|
d-8-8/9-9\4-4/6-6/8-8/9-9\4-4/6-4-------------------------|
a-6-6/7-7\2-2/4-4/6-6/7-7\2-2/4-2-------------------------|
e---------------------------------------------------------|

You, but what do I get 'cause I just seem to loose You make me regret those times I spent
with you And playing those games, as I wait for your call And now I give up so goodbye,
and solong Play this part twice

e---------------------------------------------------------|
b---------------------------------------------------------|
g-4444444-----------------999-888-------------------------|
d-4444444-6666666-4444444-999-888-------------------------|
a-2222222-6666666-4444444-777-666-------------------------|
e---------4444444-2222222---------------------------------|

e---------------------------------------------------------|
b---------------------------------------------------------|
g-4444444444444444----------------------------------------|
d-4444444444444444-22222222-44444444----------------------|
a-2222222222222222-22222222-44444444----------------------|
e------------------00000000-22222222----------------------|


It's not a change of pace, this time I'll get it right It's not a change of taste, I was
the one there last night You had your other friends, they were there when you cried Didn't
mean to hurt you then Best friends just won't leave your side

e---------------------------------------------------------|
b---------------------------------------------------------|
g-----------------------------------4444444444444444------|
d-6666666666666666-2222222222222222-4444444444444444------|
a-6666666666666666-2222222222222222-2222222222222222------|
e-4444444444444444-0000000000000000-----------------------|

e------------------ ------------------|
b---1st time------- ---2nd time-------|
g------------------ ------------------|
d-4444444444444444- 44444444-22222222-|
a-4444444444444444- 44444444-22222222-|
e-2222222222222222- 22222222-00000000-|

But what do I get 'cause I just seem to loose You make me regret those times I spent with
you And playing those games as I wait for your call And now I give up so good bye and
solong Interlude: Palm muted

e-----------------------------------------------------|
b-----------------------------------------------------|
g-------------------------- 4 times ------------------|
d---1-4---2-1---1-4---2-1-- --------------------------|
a-2-----2-----------2---------------------------------|
e-------------2---------------------------------------|

e----------------------------------------------------|
b----------------------------------------------------|
g----------------------------------------------------|
d-99999999999999999999999999999999999999999999999999-
a-xxxxxxxxxxxxxxxxxxxxxxxxxxxxxxxxxxxxxxxxxxxxxxxxxx-
e-77777777777777777777777777777777777777777777777777-


It's not a change of pace This time I'll get it right It's not a change of taste
e---
b---
g-9- I was the one there last night
d-9-
a-7-
e---

Play this twice


e-----------------------------------------------------|
b-----------------------------------------------------|
g-----------------------------------4444444444444444--|
d-6666666666666666-2222222222222222-4444444444444444--|
a-6666666666666666-2222222222222222-2222222222222222--|
e-4444444444444444-0000000000000000-------------------|

e------------------ -----------------------------------|
b---1st time ------ ----2------------------------------|nd time(ending)couple of times
g------------------ -8888888888888888-6666666666666666-|
d-4444444444444444- -8888888888888888-6666666666666666-|
a-4444444444444444- -6666666666666666-4444444444444444-|
e-2222222222222222- -----------------------------------|

When I needed you most when I needed a friend You let me down now like I let you dow
then So sorry It's over (aaaaaaaa) Ends on g-4 d-4 a-2 On live shows,Tom plays the
ending like this

e-----------------------------------------------------|
b-----------------------------------------ends on-----|
g-999-8-6-4-444-6--999-8-6-4-4444---------4444-4------|
d-xxx-x-x-x-xxx-x--xxx-x-x-x-xxxx-3,5x xxxx-4---------|
a-777-6-4-2-222-4--777-6-4-2-2222---------2222-2------|
e-----------------------------------------------------|


Voyeur

Intro
------------------------------------------------------------|
------------------------------------------------------------|
------------------------------------------------------------|
-10-x-x-x-x-x-x-x-x-x-x-x-x-x-x-7-x-x-x-x-x-x-3-x-x-x-x-x-x-|
-10-x-x-x-x-x-x-x-x-x-x-x-x-x-x-7-x-x-x-x-x-x-3-x-x-x-x-x-x-|
-8--x-x-x-x-x-x-x-x-x-x-x-x-x-x-5-x-x-x-x-x-x-1-x-x-x-x-x-x-|

Play this twice muting the X's Verse
------------------------------------------------------------|
------------------------------------------------------------|
------------------------------------------------------------|
-10-10-10-10-10-10-10-10-10-10-10-10-10-10-10-7-7-7-7-7-7-7-|
-10-10-10-10-10-10-10-10-10-10-10-10-10-10-10-5-5-5-5-5-5-5-|
-8--8--8--8--8--8--8--8--8--8--8--8--8--8--8--5-5-5-5-5-5-5-|

---------------|
---------------|
---------------|
-3-3-3-3-3-3-3-|
-3-3-3-3-3-3-3-|
-1-1-1-1-1-1-1-|


/-------------/

play twice except the second time though repeat the part indicated as main times as
needed.


Chorus
-----------------------------------------------|
-----------------------------------------------|
-----------------------------------------------|
-5-5-5-5-5-5-5-3-3-3-3-3-3-2-2-2-2-3-2-2-2-2---|
-5-5-5-5-5-5-5-3-3-3-3-3-3-3-3-3-3---3-3-3-3---|
-3-3-3-3-3-3-3-1-1-1-1-1-1-------------------3-|

/-------------------/

Palm mute this part
-------------------------------------------------------------|
-------------------------------------------------------------|
---------------------------5-5-5-5-5-5-----------------------|
-5-5-5-5-5-5-5-3-3-3-3-3-3-5-5-5-5-5-5-5-5-5-5-5-5-5-5-5-5-5-|
-5-5-5-5-5-5-5-3-3-3-3-3-3-3-3-3-3-3-3-5-5-5-5-5-5-5-5-5-5-5-|
-3-3-3-3-3-3-3-1-1-1-1-1-1-------------3-3-3-3-3-3-3-3-3-3-3-|


-------------------------------------------------------------|
-------------------------------------------------------------|
-----------------------5-5-5-5-5-5-5-------------------------|
-5-5-5-5-3-3-3-3-3-3-3-5-5-5-5-5-5-5-5-5-5-5-5-5-5-5-5-5-5-5-|
-5-5-5-5-3-3-3-3-3-3-3-3-3-3-3-3-3-3-5-5-5-5-5-5-5-5-5-5-5-5-|
-3-3-3-3-1-1-1-1-1-1-1---------------3-3-3-3-3-3-3-3-3-3-3-3-|


-------------------------------------|
-------------------------------------|
-------------------------------------|
-5-5-3-3-3-3-3-3-2-2-2-2-3-2-2-2-2---|
-5-5-3-3-3-3-3-3-3-3-3-3---3-3-3-3---|
-3-3-1-1-1-1-1-1-------------------3-|

/--------------------/

Palm mute this and repeat a few times Bridge Part

---------------------------------------------------------|
---------------------------------------------------------|
-5-5-5-5-5-5-5-------------------------------------------|
-5-5-5-5-5-5-5-3-3-3-3-3-3-3-5-5-5-5-5-5-5-3-3-3-3-3-3-3-|
-3-3-3-3-3-3-3-3-3-3-3-3-3-3-5-5-5-5-5-5-5-3-3-3-3-3-3-3-|
---------------1-1-1-1-1-1-1-3-3-3-3-3-3-3-1-1-1-1-1-1-1-|


Repeat as many times as needed Interlude Part

-----------------|
-----------------|
-----------------|
-----------------|
-3-2-------------|
-----3-3-3-3-3-3-|


Outro
-----------------------------|
-----------------------------|
-----5-5---------5-------5---|
-3-3-5-5-5-5-3-3-5-5-3-3-5-5-|
-3-3-3-3-5-5-3-3-3-5-3-3-3-5-|
-1-1-----3-3-1-1---3-1-1---3-|

---------------------|
---------------------|
---------------------|
-2-2-2-2-3-2-2-2-2---|
-3-3-3-3---3-3-3-3---|
-------------------3-|

/--------------------/


Palm mute this and repeat a few times. Finish On
---
---
-5-
-5-
-3-
---


Pathetic

|-0h2-------0h2-------0h2-----------------------|
|-----0-0-0-----0-0-0-----0-0-0-0h4-0h4-0h4-----|
|-----------------------------------------------|
|-----------------------------------------------|
|-----------------------------------------------|
|-----------------------------------------------|

Intro II x1

|-0h2-------0h2-------|
|-----0-0-0-----0-0-0-|
|---------------------|
|---------------------|
|---------------------|
|---------------------|


Verse I x4

|------------------------------------------------|
|------------------------------------------------|
|-4-4-4-4-4-4-4-4-4-4--11-11-11-11-11--9-9-9-9-9-|
|-4-4-4-4-4-4-4-4-4-4--11-11-11-11-11--9-9-9-9-9-|
|-2-2-2-2-2-2-2-2-2-2--9--9--9--9--9---7-7-7-7-7-|
|------------------------------------------------|


Chorus I x2
|-----------------------------------------------------------------------------|
|-----------------------------------------------------------------------------|
|------------------4-4-------------------4-4----------------------------------|
|-6-6-6-6-6-6-6-6--4-4--4-4-4-4-4-4-4-4--4-4--2-2-2-2-2-2-2-2-2-2-2-2-2-2-2-2-|
|-6-6-6-6-6-6-6-6--2-2--4-4-4-4-4-4-4-4--2-2--2-2-2-2-2-2-2-2-2-2-2-2-2-2-2-2-|
|-4-4-4-4-4-4-4-4-------2-2-2-2-2-2-2-2-------0-0-0-0-0-0-0-0-0-0-0-0-0-0-0-0-|

End
|-----|
|-----|
|-4-4-|
|-4-4-|
|-2-2-|
|-----|


Adem's Song


Intro (clean)
D-------------------------------------------------------------------------------------------------------------------|
A-------------------------------------------------------------------------------------------------------------------|
F-------------------------------------------------------------------------------------------------------------------|
C---------4---0-------4---0---------4----0--------4----0--------4----0--------4----0----------4---0--------4-----0--|
G----2-----------2--------------0--------------0--------------------------------------------------------------------|
D--------------------------------------------------------------3--------------3--------------0--------------3-------|


Verses (clean) (Palm muted, play each chord eight times)
D--------------------------------------------------------------------------------------------------------------------|
A--------------------------------------------------------------------------------------------------------------------|
F--------------------------------------------------------------------------------------------------------------------|
C--------7--------------4--------------------------------------------------------------------------------------------|
G--------5-----5-------2-------5-------------------------------------------------------------------------------------|
D--------------3----------------3------------------------------------------------------------------------------------|


Prechorus (clean) Play twice

D----------------------------------------------------------------------------------------------------------------|
A----------------------------------------------------------------------------------------------------------------|
F-----------------0-----------0----------0-----------0-----------------------------------------------------------|
C------------7------------7----------9-----------9-----------4---0-------4---0--------4----0-------4---0---------|
G-------5------------5----------7-----------7-----------2------------2-------------------------------------------|
D-------------------------------------------------------------------------------------3------------3-------------|


Chorus Pt. 1 ("I never conquered rarely came sixteen.......") play each chord eight times
D--------------------------------------------------------------------------------------------------------------|
A--------------------------------------------------------------------------------------------------------------|
F-------------7-----9------------------11----12-----11-----12--------------------------------------------------|
C------------x-----x----9----5--------x------x------x------x---------------------------------------------------|
G------------5-----7----x----x--------9-----10-----9------10---------------------------------------------------|
D------------------------7----3--------------------------------------------------------------------------------|


Chorus Pt. 2 ("The world was wide, to late to try......") play each chord eight times

D------------------------|
A------------------------|
F------7----9------------|
C------7----9---9----5---|
G-----5----7----9----5---|
D---------------7-----3--|


Peggy seu


INTRO
e|---------------------------------------|
B|---------------------------------------|
G|-66966-66966-777777-66966-999777-66966-|
D|-77777-77777-777777-77777-999777-77777-|
A|---------------------------------------|
E|---------------------------------------|


VERSE X4

e|--------------------------------------|
B|--------------------------------------|
G|--------------------7>>>--------------|
D|7>>>------4>>>------7>>>------224420--|
A|7>>>------4>>>------5>>>------224420--|
E|5>>>------2>>>----------------002200--|


CHORUS

e|---------------------------------------------|
B|---------------------------------------------|
G|7777-7777-----------7777-7777-----------9999-|
D|7777-7777-7777-7777-7777-7777-7777-7777-7777-|
A|5555-5555-7777-7777-5555-5555-7777-7777-7777-|
E|----------5555-5555-----------5555-5555------|


INTERLUDE PART 1

e|-------------------------------------------------|
B|-------------------------------------------------|
G|-------------------------------------------------|
D|77677-7-679-77677-7-679-77677-7-6797-77677-7-679-|
A|0----0-0----0----0-0----0----0-0-----0----0-0----|
E|-------------------------------------------------|


INTERLUDE PART 2

e|5--4--4/5--5-457-5--4--4/5--5-457-|
B|-55-55---55-5-----55-55---55-5----|
G|----------------------------------|
D|----------------------------------|
A|----------------------------------|
E|----------------------------------|


OUTRO X4

e|---------------------------------|
B|---------------------------------|
G|679-679-999777-------------------|
D|777-777-777777-------------------|
A|---------------------------------|
E|---------------------------------|


ORDER: intro verse Chorus intro verse chorus outro


Wendy Clear

Intro
E|-----------------------------------------------------------|
B|-----------------------------------------------------------|
G|-----------------------------------------------------------|
D|----5------3-2---------------------------------------------|
A|--3----3-5-------------------------------------------------|
E|-----------------------------------------------------------|


Verse

E|--------------------------------------------------------------|
B|--------------------------------------------------------------|
G|--5555555555555555------------------------55555555------------|
D|--5555555555555555-5-33333333-7777-3333-5-55555555------------|
A|--3333333333333333-5-33333333-7777-3333-5-33333333------------|
$E|-------------------3-11111111-5555-1111-3--------------------|


Pre Chorus

E|-----------------------------------------------------------|
B|-----------------------------------------------------------|
G|------------------5-5-5-5-5-5-5-5--------------------------|
D|--5-5-5-5-3-3-3-3-5-5-5-5-5-5-5-5--------------------------|
A|--5-5-5-5-3-3-3-3-3-3-3-3-3-3-3-3--------------------------|
E|--3-3-3-3-1-1-1-1------------------------------------------|

Chorus
E|-----------------------------------------------------------|
B|-----------------------------------------------------------|
G|------------------5-5-5-5----------------------------------|
D|--7-7-7-7-3-3-3-3-5-5-5-5-5-5-5-5-7-7-7-7-3-3-3-3----------|
A|--7-7-7-7-3-3-3-3-3-3-3-3-5-5-5-5-7-7-7-7-3-3-3-3----------|
E|--5-5-5-5-1-1-1-1---------3-3-3-3-5-5-5-5-1-1-1-1----------|


Verse 2

E|-----------------------------------------------------------|
B|-----------------------------------------------------------|
G|------------------------------------------5-5-5-5-5-5-5-5--|
D|----------------------------------------5-5-5-5-5-5-5-5-5--|
A|----------------------------------------5-3-3-3-3-3-3-3-3--|
E|----------------------------------------3------------------|


Chorus 2

E|------------------------------------------------------------------|
B|------------------------------------------------------------------|
G|------------------5-5-5-5-------------------------5-5-5-5-5-5-5-5-|
D|--7-7-7-7-3-3-3-3-5-5-5-5-5-5-5-5-7-7-7-7-3-3-3-3-5-5-5-5-5-5-5-5-|
A|--7-7-7-7-3-3-3-3-3-3-3-3-5-5-5-5-7-7-7-7-3-3-3-3-3-3-3-3-3-3-3-3-|
E|--5-5-5-5-1-1-1-1---------3-3-3-3-5-5-5-5-1-1-1-1-----------------|


Bridge

E|-----------------------------------------------------------|
B|-----------------------------------------------------------|
G|--------------55----------------------5-5-5-5-5-5-5-5------|
D|--55----33----55----55----77----33----5-5-5-5-5-5-5-5------|
A|--55----33----33----55----77----33----3-3-3-3-3-3-3-3------|
E|--33----11----------33----55----11-------------------------| PM
Intro x4
Verse x2
Pre Chorus x2
Chorus Intro
x6 Verse (played by bass)
Verse 2
Pre Chorus x2
Chorus Bridge x2
Intro x8
Pre Chorus x2
Chorus
Pre chorus x4

Carousel


---------------------------------------------------------------------|
---------------------------------------------------------------------|
---------------------------------------------------------------------| 1X
-------------------------------------------4-5-5-5-4-4-4-------------|
-12-12-12-10-10-10-9--12-12-12-10-10-10-9----------------5--5-5-5-5--|
---------------------------------------------------------------------|


--------------------------------------------------------------|
--------------------------------------------------------------|
--------------------------------------------------------------|
------------------------------------4-5-5-5-4-4-4-------------| 1X
-10-10-10-9-9-9-7--10-10-10-9-9-9-7---------------5--5-5-5-5--|
--------------------------------------------------------------|

---------------------------------------------------------------------|
---------------------------------------------------------------------|
---------------------------------------------------------------------|
-------------------------------------------4-5-5-5-4-4-4-------------| 1X
-12-12-12-10-10-10-9--12-12-12-10-10-10-9----------------5--5-5-5-5--|
---------------------------------------------------------------------|

---------------------------------------------------------------------|
---------------------------------------------------------------------|
---------------------------------------------------------------------| 1X
------------------------------------4-5-5-5-4-4-4--------------------|
-10-10-10-9-9-9-7--10-10-10-9-9-9-7---------------5--5-5-5-5----9-10-|
---------------------------------------------------------------------|


--------------------------------------------------------------------------|
--------------------------------------------------------------------------|
--------------------------------------------------------------------------| 2X
----4-4-5-7-5-4-----------------------------------------------------------|
--5-------------5-----4-4-5-7-5-4------7-7-9-10-10-9-9----5-5---5---5-----|
-------------------5--------------5--7------------------3-----3---3-------|

--------------------------------|
--------------------------------|
--------------------------------|
4X -77777-----------------------|
-55555--77777--99999--55555-----|
--------55555--77777--33333-----|

------------------------------------------------|
------------------------------------------------|
-7--7-7-7-7-------------------------------------| 2X
-7--7-7-7-7--7--7-7-7-7--9--9-9-9-9--5--5-5-5-5-|
-5--5-5-5-5--7--7-7-7-7--9--9-9-9-9--5--5-5-5-5-|
-------------5--5-5-5-5--7--7-7-7-7--3--3-3-3-3-|


--------------------|
--------------------|
--------------------| 2X
-4---2---0-2-0------|
---------------4-0--|
--------------------|

-----------------------------------------------------------|
-----------------------------------------------------------|
-----------------------------------------------------------| 4X
4-4-4-4-4-4-4-4-2-2-2-2-2-2-2-2-4-4-4-4-4-4-4-4-0-2-0------|
------------------------------------------------------0-4--|
-----------------------------------------------------------|

-------------------------------------------------------|
-------------------------------------------------------|
-7---7-7-7-7-------------------------------------------| 4X
-7---7-7-7-7---7---7-7-7-7---9---9-9-9-9---5---5-5-5-5-|
-5---5-5-5-5---7---7-7-7-7---9---9-9-9-9---5---5-5-5-5-|
---------------5---5-5-5-5---7---7-7-7-7---3---3-3-3-3-|


----------------------------------------|
----------------------------------------|
--7-7-7-7---9-9-9-9---------------------| 4X
--7-7-7-7---9-9-9-9---7-7-7-7---5-5-5-5-|
--5-5-5-5---7-7-7-7---7-7-7-7---5-5-5-5-|
----------------------5-5-5-5---3-3-3-3-|

-----------------------------------------------------------|
-----------------------------------------------------------|
-----------------------------------------------------------| 2X
4-4-4-4-4-4-4-4-2-2-2-2-2-2-2-2-4-4-4-4-4-4-4-4-0-0-2-0----|
--------------------------------------------------------4--|
-----------------------------------------------------------|


-------------------------------------------------------|
-------------------------------------------------------|
-7---7-7-7-7-------------------------------------------| 2X
-7---7-7-7-7---7---7-7-7-7---9---9-9-9-9---5---5-5-5-5-|
-5---5-5-5-5---7---7-7-7-7---9---9-9-9-9---5---5-5-5-5-|
---------------5---5-5-5-5---7---7-7-7-7---3---3-3-3-3-|

------------------------------|
------------------------------|
------------------------------| 1X
----4-4--4-4-4----------------|
-5----------------4-4--4-4-4--|
---------------5--------------|


--------------------------------------------------------------|
--------------------------------------------------------------|
--------------------------------------------------------------| 4X
----4-5-7-5-4-------------------------------------------------|
--5-----------5----4-5-7-5-4------6-7-9-7-6------2-3-5-3-2----|
-----------------5-----------5--7-----------7--3-----------3--|

---------------------------------------- ---|
---------------------------------------- ---|
--7-7-7-7---9-9-9-9--------------------- ---| 4X
--7-7-7-7---9-9-9-9---7-7-7-7---5-5-5-5- -7-|
--5-5-5-5---7-7-7-7---7-7-7-7---5-5-5-5- -7-|
----------------------5-5-5-5---3-3-3-3- -5-|


All the Small Things

INTRO (DIST.)
E|-------|
B|-------|
G|-------|
D|--5-3--|
A|--5-3--|
E|--3-1--|


RIFF 1 (DIST.)
PLAY 2 TIMES

E|---------------------------------------------|
B|---------------------------------------------|
G|--55555555--55555555-------------------------|
D|--55555555--33333333-55555555---------3-3-3--|
A|--33333333-----------xxxxxxxx-0-0-0-0-3-3-3--|
E|---------------------33333333---------1-1-1--|
Pm.........................


VERSE 1 (PALM MUTE)
PLAY 4 TIMES

E|---------------------------------------------|
B|---------------------------------------------|
G|---------------------------------------------|
D|--55555555-----------------------------------|
A|--33333333-55555555--33333333--55555555------|
E|-----------33333333--11111111--33333333------|

RIFF 2 LET RING
E|---------------|
B|---------------|
G|--5------------|
D|--5------------|
A|--3------------|
E|-------3----1--|


CHORUS (DIST.)
PLAY 2 TIMES

E|------------------------------------------|
B|------------------------------------------|
G|--5555555555555555------------------------|
D|--5555555555555555-55555555-33333333------|
A|--3333333333333333-xxxxxxxx-33333333------|
E|-------------------33333333-11111111------|


RIFF 3 (DIST.)
PLAY 2 TIMES

E|-------------------------------------------------|
B|-------------------------------------------------|
G|-55555555--101010--999--77777777-----------------|
D|-55555555--101010—-999--xxxxxxxx-7-7-7-7--3-3-3--|
A|-33333333---8-8-8--777--55555555-7-7-7-7--3-3-3--|
E|---------------------------------5-5-5-5--1-1-1--|
Pm........................


VERSE 2 (PALM MUTE)
PLAY 2 TIMES
E|-------------------------------------------|
B|-------------------------------------------|
G|-------------------------------------------|
D|--55555555---------------------------------|
A|--33333333-55555555--33333333--55555555----|
E|-----------33333333--11111111--33333333----|


RIFF 4 LET RING

E|---------------|
B|---------------|
G|--5------------|
D|--5------------|
A|--3------------|
E|-------3----1--|

CHORUS (DIST.)
PLAY 2 TIMES RIFF 5 LET RING

E|-----------------------------------------| |-----|
B|-----------------------------------------| |-----|
G|--5555555555555555-----------------------| |--5--|
D|--5555555555555555--55555555--33333333---| |--x--|
A|--3333333333333333--55555555--33333333---| |--3--|
E|--------------------33333333--11111111---| |-----|


INTERLUDE (DIST.) PLAY I TIME LET RING
E|---------|
B|---------|
G|--5------|
D|--x------|
A|--3---5--|
E|---------|

(PALM MUTE) PLAY 4 TIMES ENDING INTERLUDE


E|-----------------------------| |--------------------------------------|
B|-----------------------------| |--------------------------------------|
G|--5—-5--5--5--4--4--7--7-----| |--5555555555555555--------------------|
D|----5--5--5--5--5--5--5--5---| |--5555555555555555-33333333-55555555--|
A|-----------------------------| |--3333333333333333-33333333-55555555--|
E|-----------------------------| |-------------------11111111-33333333--|
Pm.............................................................................................


CHORUS (DIST.) PLAY 3 TIMES

E|---------------------------------------------|
B|---------------------------------------------|
G|--5555555555555555---------------------------|
D|--5555555555555555--55555555--333333333------|
A|--3333333333333333--55555555--333333333------|
E|--------------------33333333--111111111------|


OUTRO (DIST.) PLAY 1 TIME

E|-------------------------------------------------------|
B|-------------------------------------------------------|
G|--5555555555555555------------------------------5------|
D|--5555555555555555--55555555—-555555555555555---5------|
A|--3333333333333333--55555555—-555555555555555---3------|
E|--------------------33333333—-333333333333333----------|
Pm.................................................


Mutt

intro:
e|---------------------|
B|---------------------|
G|---6-----6------6----|
D|-7-----7------7------| PLAY THIS MANY TIMES
A|-----7------7--------|
E|---------------------|


e|-----------------------------------------------------------|
B|-----------------------------------------------------------|
G|-----2-----2-----2h4------2h4-----6------6------2h4----2h4-|
D|--------------------------------------------2-2-----2-2----|
A|-0-0---0-0---0-0-----0-0------4-4----4-4-------------------|
E|-----------------------------------------------------------|
* * * * * * * * * * * * * * * *

then

e|-------------------------------------------------|
B|-------------------------------------------------|
G|-------------------------------------------------|
D|-222222-0-4444-0-2222-0-22222-0-44444-0-222------|
A|-000000-0-4444-0-2222-0-00000-0-44444-0-222------|
E|--------0-2222-0-0000-0-------0-22222-0-000------|

cont.
e|---------------------|
B|---------------------|
G|---------------------|
D|-777777-77/99999-----|
A|-555555-55/77777-----|
E|---------------------|


after that:

e|----------------------------|
B|----------------------------|
G|----------------------------|
D|-77-7-7777-77777-777-777----|
A|-00-0-0000-00000-555-444----|
E|-----------77777------------|

"she´s open waiting for more...." kind of interlude:

e|-----------------------|
B|-----------------------|
G|-----------------------|
D|-77---99---77-66-------|
A|-77---99---55-44-------|
E|-55---77---------------|
** ** ** **

outro

e|-----------------|
B|-----------------|
G|--------77-66----|
D|-22~44~-77-66----| 2x
A|-00~22~-55-44----|
E|-----------------|

end on
e|------|
B|------|
G|-2~---|
D|-2~---|
A|-0~---|
E|------|


Country song

Intro: Bass Plays...then:
e---------------------------------------------------------------------|
B---------------------------------------------------------------------|
G---------0-------------0----------0----00----0---00---0---00----0----|
D---------2-------------2----------2----22----2---22---2---22----2----|
A-----0-3--------0-3-----------0-3---------3---------3---------3---3--|
E-0-3--------0-3-----------0-3------------------3--------3------------|


e--------------------------------------------------|
B--------------------------------------------------|
G-----------00---0---00---0---00---0---------------|
D-----------22---2---22---2---22---2---------------|(repeat until lyrics come in)
A-----0-2-3----3--------3--------3---3-------------|
E---3--------------3--------3----------------------|


Verse:
e--------------------------------------------------|
B--------------------------------------------------|
G--------------------------------------------------|
D----2---2----2---2----2----2----------------------|
A--3--------3--------3----------3-----0--2---------|
E------3--------3---------3--------3---------------|


Verse Part 2: (played during "Well hey now, feels so good...")

e--------------------------------------------------|
B--------------------------------------------------|
G-33333333333----55555555-5-5-5-5------------------|
D-33333333333----55555555-5-5-5-5------------------|
A-11111111111----33333333-3-3-3-3----3-------------|
E--------------------------------------------------|


Dammit

Intro part, play with alot of distortion (and possibly chorus).
e-------------------------------------------------------|
B-------------------------------------------------------|
G-------------------------------------------------------|
D-----0-0-2-------0-0-2-------0-0-2-------2-2-0---------|
A-3-3---------------------0-0---------------------------|
E-------------3-3---------------------1-1---------------|


"It's all right to tell me what you think about me"...(all verse parts)

e-------------------------------------------------------|
B-------------------------------------------------------|
G--5-5-5-5-5-5------------------------------------------|
D--5-5-5-5-5-5--5-5-5-5-5-5--7-7-7-7-7-7--3-3-3-3-3-----|
A--3-3-3-3-3-3--5-5-5-5-5-5--7-7-7-7-7-7--3-3-3-3-3-----|
E---------------3-3-3-3-3-3--5-5-5-5-5-5--1-1-1-1-1-----|


*palm mute all strums but the first of each chord. verse2 - same thing as first verse but
hit each chord 5 times w/o palmmute chorus-"And its happened once again..." same chords but
different rhythm

e-----------------|
B-----------------|
G--5--------------|
D--5---5---7--3---|
A--3---5---7--3---|
E------3---5--1---|


Bridge. (Clean)

2x
e------------------------------------------------------------------------------|
B------------------------------------------------------------------------------|
G------------------------------------------------------------------------------|
D--2------0--2------2---------0-2---0-2----2-----------------------------------|
A----3---------3------3-----------3-----3----3---------------------------------|
E------3----------------3----------------------3-------------------------------|

blink 182 dammit intro 4x verse 2x (it's alright to tell me, what you think about me...")
verse2 2x (i know that your leaving, you must have your reasons") intro 2x verse 2x (the
steps that i retraced, the sad look on your face) verse2 2x ( a day late a buck short, im
writing the report...) chorus 2x (and its happened once again, i'll turn to a friend...)
intro 2x verse 2x (and maybe i'll see you, at a movie sneak preview...) verse2 2x (and you'll
smile, and i'll wave...) chorus 2x (and its happened once again, i'll turn to a friend...)
bridge intro 4x end on C5


Man overboard

Chords: E5 G5 A5 C5 D5
e|------------------------------------------------------|
B|------------------------------------------------------|
G|------------------------------5-------7---------------|
D|------2-------5-------7-------5-------7---------------|
A|------2-------5-------7-------3-------5---------------|
E|------0-------3-------5-------------------------------|


Intro (that cool part at the begining is THE BASS, not guitar): (0:10) (x8) (x8) (x16)

e|------------------------------------------------------------------|
B|------------------------------------------------------------------|
G|---------------------------------5-5-5-5-5-5-5-5-5-5-5-5-5-5-5-5--|
D|-5-5-5-5-5-5-5-5-7-7-7-7-7-7-7-7-5-5-5-5-5-5-5-5-5-5-5-5-5-5-5-5--|
A|-5-5-5-5-5-5-5-5-7-7-7-7-7-7-7-7-3-3-3-3-3-3-3-3-3-3-3-3-3-3-3-3--|
E|-3-3-3-3-3-3-3-3-5-5-5-5-5-5-5-5----------------------------------|


So sorry, it's over So sorry, it's over So sorry, it's over Also sung during above Intro: There's
so much more that I wanted, and there's so much more that I needed, and time keeps movin' on and on
and on, Soon we'll all be gone (x8) (x8) (x8) (hold chord @ "goodbye")


e|----------------------------------------------------|
B|----------------------------------------------------|
G|---------------------------------5-5-5-5-5-5-5-5-7--|
D|-5-5-5-5-5-5-5-5-7-7-7-7-7-7-7-7-5-5-5-5-5-5-5-5-7--|
A|-5-5-5-5-5-5-5-5-7-7-7-7-7-7-7-7-3-3-3-3-3-3-3-3-5--|
E|-3-3-3-3-3-3-3-3-5-5-5-5-5-5-5-5--------------------|

So sorry, it's over Pre-Verse Riff 1: (0:30)

e|------------------------------------------------------|
B|------------------------------------------------------|
G|------------------------------------------------------|
D|------------------------------------------------------|
A|----0-2-3-2--0-2-3-2-0------0-2-3-2--0-2-3-2-0--------|
E|--3-----------------------0---------------------------|


e|------------------------------------------------------|
B|------------------------------------------------------|
G|------------------------------------------------------|
D|------------------------------------------------------|
A|----0-2-3-2--0-2-3-2-0------0-2-3-2--0-2-3-2-0--------|
E|--3-----------------------0---------------------------|


e|------------------------------------------------------|
B|------------------------------------------------------|
G|--0-0--------------------0-0--------------------------|
D|----------0--0-0-2-0-------------0--0-0-2-0-----------|
A|------2h3------------3-------2h3------------3---------|
E|------------------------------------------------------|


e|------------------------------------------------------|
B|------------------------------------------------------|
G|--0-0--------------------0-0--------------------------|
D|----------0--0-0-2-0-------------0--0-0-2-0-----------|
A|------2h3------------3-------2h3------------3---------|
E|------------------------------------------------------|

Verse 1: (0:50) (x16) (x8) (x8)
e|-------------------------------------------------------------------------|
B|-------------------------------------------------------------------------|
G|-------------------------------------------------------5-5-5-5-5-5-5-5---|
D|--5-5-5-5-5-5-5-5-5-5-5-5-5-5-5-5---2-2-2-2-2-2-2-2----5-5-5-5-5-5-5-5---|
A|--5-5-5-5-5-5-5-5-5-5-5-5-5-5-5-5---2-2-2-2-2-2-2-2----3-3-3-3-3-3-3-3---|
E|--3-3-3-3-3-3-3-3-3-3-3-3-3-3-3-3---0-0-0-0-0-0-0-0----------------------|


Let's take some time You're outta line And rarely sober To talk this over (x16) (x8) (x8)
e|-----------------------------------------------------------------------|
B|-----------------------------------------------------------------------|
G|-----------------------------------------------------5-5-5-5-5-5-5-5---|
D|--5-5-5-5-5-5-5-5-5-5-5-5-5-5-5-5--2-2-2-2-2-2-2-2---5-5-5-5-5-5-5-5---|
A|--5-5-5-5-5-5-5-5-5-5-5-5-5-5-5-5--2-2-2-2-2-2-2-2---3-3-3-3-3-3-3-3---|
E|--3-3-3-3-3-3-3-3-3-3-3-3-3-3-3-3--0-0-0-0-0-0-0-0---------------------|


We can't depend On your excuses Cause in the end It's f**king useless Chorus 1: (1:00) (x5) (x5)

e|------------------------------------------------------|
B|------------------------------------------------------|
G|--------------------7-7-7-7-7-------------------------|
D|--5-5-5-5-5---------7-7-7-7-7-------------------------|
A|--5-5-5-5-5---------5-5-5-5-5-------------------------|
E|--3-3-3-3-3-------------------------------------------|


You can only lean, on me for so long (x5) (x5)

e|------------------------------------------------------|
B|------------------------------------------------------|
G|-----------------------5-5-5-5-5----------------------|
D|--2-2-2-2-2------------5-5-5-5-5----------------------|
A|--2-2-2-2-2------------3-3-3-3-3----------------------|
E|--0-0-0-0-0-------------------------------------------|


Bring the ship about, to watch a friend drown (x5)

e|------------------------------------------------------|
B|------------------------------------------------------|
G|-----------------------7-7-7-7-7----------------------|
D|--5----------5---------7-7-7-7-7----------------------|
A|--5----------5---------5-5-5-5-5----------------------|
E|--3----------3----------------------------------------|


Sit out on the ledge, begged you to come down (x5)

e|------------------------------------------------------|
B|------------------------------------------------------|
G|--------------------5-5-5-5-5-------------------------|
D|--2-----------2-----5-5-5-5-5-------------------------|
A|--2-----------2-----3-3-3-3-3-------------------------|
E|--0-----------0---------------------------------------|


You can only lean, on me for so long Pre-Verse Riff 2: (1:09)

e|------------------------------------------------------|
B|------------------------------------------------------|
G|------------------------------------------------------|
D|------------------------------------------------------|
A|----0-2-3-2--0-2-3-2-0------0-2-3-2--0-2-3-2-0--------|
E|--3-----------------------0---------------------------|


e|------------------------------------------------------|
B|------------------------------------------------------|
G|------------------------------------------------------|
D|------------------------------------------------------|
A|----0-2-3-2--0-2-3-2-0------0-2-3-2--0-2-3-2-0--------|
E|--3-----------------------0---------------------------|


Verse 2: (1:19) (x16) (x8) (x8)

e|-----------------------------------------------------------------------------|
B|-----------------------------------------------------------------------------|
G|--------------------------------------------------------5-5-5-5-5-5-5-5------|
D|--5-5-5-5-5-5-5-5-5-5-5-5-5-5-5-5----2-2-2-2-2-2-2-2----5-5-5-5-5-5-5-5------|
A|--5-5-5-5-5-5-5-5-5-5-5-5-5-5-5-5----2-2-2-2-2-2-2-2----3-3-3-3-3-3-3-3------|
E|--3-3-3-3-3-3-3-3-3-3-3-3-3-3-3-3----0-0-0-0-0-0-0-0-------------------------|


I remember shots Without a chaser Absent minded thoughts Now you're a stranger (x16) (x8) (x8)
e|---------------------------------------------------------------------------|
B|---------------------------------------------------------------------------|
G|-------------------------------------------------------5-5-5-5-5-5-5-5-----|
D|--5-5-5-5-5-5-5-5-5-5-5-5-5-5-5-5--2-2-2-2-2-2-2-2-----5-5-5-5-5-5-5-5-----|
A|--5-5-5-5-5-5-5-5-5-5-5-5-5-5-5-5--2-2-2-2-2-2-2-2-----3-3-3-3-3-3-3-3-----|
E|--3-3-3-3-3-3-3-3-3-3-3-3-3-3-3-3--0-0-0-0-0-0-0-0-------------------------|

Cover up the scars Left you at the bar To try and save face Put on your game face Chorus
2: (1:29) (x5) (x5)

e|------------------------------------------------------|
B|------------------------------------------------------|
G|--------------------7-7-7-7-7-------------------------|
D|--5-5-5-5-5---------7-7-7-7-7-------------------------|
A|--5-5-5-5-5---------5-5-5-5-5-------------------------|
E|--3-3-3-3-3-------------------------------------------|


You can only lean, on me for so long (x5) (x5)

e|------------------------------------------------------|
B|------------------------------------------------------|
G|-----------------------5-5-5-5-5----------------------|
D|--2-2-2-2-2------------5-5-5-5-5----------------------|
A|--2-2-2-2-2------------3-3-3-3-3----------------------|
E|--0-0-0-0-0-------------------------------------------|

Bring the ship about, to watch a friend drown (x5)
e|------------------------------------------------------|
B|------------------------------------------------------|
G|-----------------------7-7-7-7-7----------------------|
D|--5----------5---------7-7-7-7-7----------------------|
A|--5----------5---------5-5-5-5-5----------------------|
E|--3----------3----------------------------------------|


Sit out on the ledge, begged you to come down (x5)

e|------------------------------------------------------|
B|------------------------------------------------------|
G|--------------------5-5-5-5-5-------------------------|
D|--2-----------2-----5-5-5-5-5-------------------------|
A|--2-----------2-----3-3-3-3-3-------------------------|
E|--0-----------0---------------------------------------|


You can only lean, on me for so long Bridge: (1:39) (hold all chords)

e|--------------------------------------|
B|--------------------------------------|
G|--------------------5-----------------|
D|-5---/---7----------5-----------------|
A|-5---/---7----------3-----------------|
E|-3---/---5----------------------------|


So sorry, it's over So sorry, it's over (hold first 2) (x8)

e|--------------------------------------|
B|--------------------------------------| *note - Tom plays the above staff
G|--------------------5-5-5-5-5-5-5-5---| the first two times, the one
D|-5---/---7----------5-5-5-5-5-5-5-5---| to the left the third time,
A|-5---/---7----------3-3-3-3-3-3-3-3---| and the one below last
E|-3---/---5----------------------------| So Sorry, it's over Also sung during above bridge:
There's so much more that I wanted, and there's so much more that I needed, and time keeps
movin' on and on and on, Soon we'll all be gone (hold first 2) (x8) (hold)


e|-----------------------------------------|
B|-----------------------------------------| *note - the last chord is strummed
G|--------------------5-5-5-5-5-5-5-7------| right as Tom says "on"
D|-5---/---7----------5-5-5-5-5-5-5-7------| the last time
A|-5---/---7----------3-3-3-3-3-3-3-5------|
E|-3---/---5-------------------------------|


So sorry, it's over Pre-Verse Riff 3: (1:58)

e|------------------------------------------------------|
B|------------------------------------------------------|
G|------------------------------------------------------|
D|------------------------------------------------------|
A|----0-2-3-2--0-2-3-2-0------0-2-3-2--0-2-3-2-0--------|
E|--3-----------------------0---------------------------|


e|------------------------------------------------------|
B|------------------------------------------------------|
G|------------------------------------------------------|
D|------------------------------------------------------|
A|----0-2-3-2--0-2-3-2-0------0-2-3-2--0-2-3-2-0--------|
E|--3-----------------------0---------------------------|

e|------------------------------------------------------|
B|------------------------------------------------------|
G|--0-0--------------------0-0--------------------------|
D|----------0--0-0-2-0-------------0--0-0-2-0-----------|
A|------2h3------------3-------2h3------------3---------|
E|------------------------------------------------------|


e|------------------------------------------------------|
B|------------------------------------------------------|
G|--0-0--------------------0-0--------------------------|
D|----------0--0-0-2-0-------------0--0-0-2-0-----------|
A|------2h3------------3-------2h3------------3---------|
E|------------------------------------------------------|


Verse 3: (2:18) (x8) (x8)
e|--------------------------------------------------|
B|--------------------------------------------------|
G|-------------------5-5-5-5-5-5-5-5----------------|
D|--5-5-5-5-5-5-5-5--5-5-5-5-5-5-5-5----------------|
A|--5-5-5-5-5-5-5-5--3-3-3-3-3-3-3-3----------------|
E|--3-3-3-3-3-3-3-3---------------------------------|


Man on a mission Can't say I miss him around (x4) (x4) (x8)

e|---------------------------------------------------|
B|---------------------------------------------------|
G|----------------------5-5-5-5-5-5-5-5--------------|
D|--5-5-5-5-7-7-7-7-----5-5-5-5-5-5-5-5--------------|
A|--5-5-5-5-7-7-7-7-----3-3-3-3-3-3-3-3--------------|
E|--3-3-3-3-5-5-5-5----------------------------------|


Insider information Hand in your resignation (x8) (x8)

e|-------------------------------------------------------|
B|-------------------------------------------------------|
G|------------------------5-5-5-5-5-5-5-5----------------|
D|--5-5-5-5-5-5-5-5-------5-5-5-5-5-5-5-5----------------|
A|--5-5-5-5-5-5-5-5-------3-3-3-3-3-3-3-3----------------|
E|--3-3-3-3-3-3-3-3--------------------------------------|


Loss of a good friend Best of intentions I've found (x4) (x4) (x4) (x4) (hold & fade)
e|-----------------------------------------------------------|
B|-----------------------------------------------------------|
G|--------------------------------5-5-5-5---7-7-7-7----------|
D|--5-5-5-5-7-7-7-7---------------5-5-5-5---7-7-7-7------5---|
A|--5-5-5-5-7-7-7-7---------------3-3-3-3---5-5-5-5------5---|
E|--3-3-3-3-5-5-5-5--------------------------------------3---|


Tight lipped procrastination Yeah later, see you around That's all for this song.
Not extremely difficult, But the intro riff is a little difficult to master. If you
want the bass riff for the very beginning, I've Included it below. BASS INTRO RIFF

G|-0-0-7-0-5-0-4-0--|
D|------------------|
A|------------------|
E|------------------|

G|-0-0-7-0-5-0-4-0--|
D|------------------|
A|------------------|
E|------------------|

G|-0-0-7-0-5-0-4-0-5-0-4-0-5-0-4-0--|
D|----------------------------------|
A|----------------------------------|
E|----------------------------------|
comments
print report bad tab
6 comments total. Showing first comments.
+1 reply
dudewowamcool wrote on August 2 2004, 12:00 am

all you did was take regular versions and put them live look at carousel *** its obvios

+1 reply
Blinkrules828 wrote on August 2 2004, 12:00 am

Ya he's right.. carousel isn't played like that live.

HInt Hint you should actually listen to a cd before tabing it *rolleyes*.. it looked good at the beginning.. but.. no..

+1 reply
wh1ck3r wrote on September 19 2004, 12:00 am

wooow yah....such a slacker....this tab sucks

I want to post or [tab]
guest
You may want to rate the tab now too:
select rating
Please do not post tabs as comments. Select "correction" instead!