Oops, an error
Loading. Please wait.

Mh 4182011 tab

version 2
version 2

Whole song

Interactive

3,534 views 15 this week
3 commentsread comments
1 2 3 4 5
x 3
add to favorites
×
Save as Personal and add changes to this tab that will be seen only by you. Learn more ›
×
You can save this tab as Personal to edit and correct it or add notes. All changes will be seen only by you. Learn more »
launch autoscroll
font size
0
reset
how to read this tab
guitar tuner
edit
Autoscroll
slow
fast
+/-
esc
set tempo
stop
Author
       Title: MH 4.18.2011
Artist: Blink 182
Album: Neighborhoods

Before you start the intro, to make that noise Tom DeLonge does on his
guitar, strum the strings below the tuning pegs of your guitar.

Intro/Chorus
e|---------------------------------------------------------------------------|
B|-(0)-----------(0)---------------------------------------------------------|
G|--2--2----------2-x-2------------------------------------------------------|
D|--2--2--2--4----2-x-2---2--4-----------------------------------------------|
A|--0--0--2--4----0-x-0---2--4-----------------------------------------------|
E|--------0--2------------0--2-----------------------------------------------|

Preverse
e|---------------------------------------------------------------------------|
B|---------------------------------------------------------------------------|
G|---------------------------------------------------------------------------|
D|--2-x-2-x-2-x-2-x-2-x-2-x-222----------------------------------------------|
A|--2-x-2-x-2-x-2-x-2-x-2-x-222----------------------------------------------|
E|--0-x-0-x-0-x-0-x-0-x-0-x-000----------------------------------------------|

Verse (Lead)
e|---------------------------------------------------------------------------|
B|---------------------------------------------------------------------------|
G|--13--9--------------------------------------------------------------------|
D|--x---x--------------------------------------------------------------------|
A|--11--7--------------------------------------------------------------------|
E|---------------------------------------------------------------------------|

Verse (Rhythm)
e|---------------------------------------------------------------------------|
B|---------------------------------------------------------------------------|
G|--9------------------------------------------------------------------------|
D|--9--7---------------------------------------------------------------------|
A|--7--7---------------------------------------------------------------------|
E|-----5---------------------------------------------------------------------|

Pre Chorus
e|---------------------------------------------------------------------------|
B|---------------------------------------------------------------------------|
G|--4--6--2--4-x--6--2-------------------------------------------------------|
D|--4--6--2--4-x--6--2--6----------------------------------------------------|
A|--2--4--0--2-x--4--0--7----------------------------------------------------|
E|----------------------4----------------------------------------------------|

Chorus (Rhythm)
e|---------------------------------------------------------------------------|
B|-(0)-----------(0)---------------------------------------------------------|
G|--2--2----------2-x-2------------------------------------------------------|
D|--2--2--2--4----2-x-2---2--4-----------------------------------------------|
A|--0--0--2--4----0-x-0---2--4-----------------------------------------------|
E|--------0--2------------0--2-----------------------------------------------|

Chorus (Lead) all notes ring out
e|---------------------------------------------------------------------------|
B|-------------9--------------9------------10------------9--7----------------|
G|--9---9---9-----9---9---9-----9---9---9-----9---9---9----------------------|
D|----9---9---------9---9---------9---9---------9---9------------------------|
A|---------------------------------------------------------------------------|
E|---------------------------------------------------------------------------|

e|---------------------------------------------------------------------------|
B|-------------9--------------9------------7------------9--------------------|
G|--9---9---9-----9---9---9-----9---9---9-----9---9---9----------------------|
D|----9---9---------9---9---------9---9---------9---9------------------------|
A|---------------------------------------------------------------------------|
E|---------------------------------------------------------------------------|

Bridge
e|---------------------------------------------------------------------------|
B|---------------------------------------------------------------------------|
G|--11-s--9--11-s--9--8-s-9--6-----------------------------------------------|
D|--x-----x--x-----x--x---x--6--4--------------------------------------------|
A|--9--s--7--9--s--7--6-s-7--4--4--------------------------------------------|
E|------------------------------2--------------------------------------------|

e|---------------------------------------------------------------------------|
B|---------------------------------------------------------------------------|
G|--11-s--9--11-s--9--8-s-9--6--4--------------------------------------------|
D|--x-----x--x-----x--x---x--6--4--------------------------------------------|
A|--9--s--7--9--s--7--6-s-7--4--2--------------------------------------------|
E|---------------------------------------------------------------------------|

e|---------------------------------------------------------------------------|
B|---------------------------------------------------------------------------|
G|--222222222222222----------------------------------------------------------|
D|--222222222222222----------------------------------------------------------|
A|--000000000000000----------------------------------------------------------|
E|---------------------------------------------------------------------------|

Outro
e|--------|
B|--------|
G|--------|
D|--2~~~~~|
A|--2~~~~~|
E|--0~~~~~|

Intro x 2
Pre Verse x 1
Verse x 4
Pre Chorus x 1
Chorus x 2
Pre Verse x 1
Verse x 2
Pre Chorus x 1
Chorus x 2
Bridge x 2
Chorus x 4
Outro

            
            
Suggest correction
Creating personal tab
Creating personal tab
You can edit any tab online and save it as your Personal.

You can edit, replace or remove any tab part or add personal notes – all changes will be seen only by you.

Personal tabs can be accessed anytime from any device, even offline.
Learn more »
Give kudos to tab author, rate the tab!
1 2 3 4 5
comments
print report bad tab
3 comments total.
0 reply
HH_Emo_666 242 Mar 27, 2012 08:39 AM

I fixed the intro/chorus and also the verse. Hopefully it'll show up soon.

0 reply
alexv182 434 Dec 06, 2014 06:31 AM

It's actually pretty good tab, don't know why people don't seem to like it.

guest
You may want to rate the tab now too:
select rating
Wanna post a correction for this tab? Suggest correction