Oops, an error
Loading. Please wait.

Mh 4182011 tab

version 3
version 3

Whole song

Interactive

3,494 views 6 this week
no commentswrite comment
1 2 3 4 5
x 7
add to favorites
×
Save as Personal and add changes to this tab that will be seen only by you. Learn more ›
×
You can save this tab as Personal to edit and correct it or add notes. All changes will be seen only by you. Learn more »
launch autoscroll
font size
0
reset
how to read this tab
guitar tuner
edit
Autoscroll
slow
fast
+/-
esc
set tempo
stop
Author
Unregistered
----------------------------------------------------------------------------
Track: MH 4.18.2011
Artist: Blink-182
Album: Neighbourhoods
----------------------------------------------------------------------------
Personally one of my favourite tracks from the Neighbourhoods album. I didn't like
the other tab, so I thought I'd give it a try. This is what I play when I play it
live - all done by ear. Usually there are 2 guitars, but I've merged them so you
only have to play one. Occasionally on this tab, I'll give you the choice of what
to play in some sections - this is your decision of what to play, I'm just giving
you the option. Just letting you know, what I play when playing this, I play the
FIRST option tabbed - if that makes sense.
If you like this tab, give it a rate. Also if you have any requests for other
songs you'd like me to tab, send me an email on the address above. Enjoy :)
----------------------------------------------------------------------------
Tuning: Standard Tuning (E A D G B e)
BPM (Beats Per Minute): 185
----------------------------------------------------------------------------
Key:
<2> = Natural Harmonic
x = Palm Mute
/ = Slide fingers upwards
\ = Slide fingers downwards
D = Downstroke
U = Upstroke
~ = Let Ring Out
Intro 1:
e|--------|
B|--------|
G|-<4>----|  PINCH THESE TWO NOTES
D|-<2>----|  DO NOT DOWN/UPSTROKE
A|--------|
E|--------|


Intro 2 [part 1]:
e|-----------------------------|----------------------------------|     CONTINUE
B|-----------------------------|----------------------------------|     STRAIGHT
G|-4--4--4-4-4-2--2-2-2--2-2-0-|-x--x--x-x-x-x--x-x--x-x-0--------|     ON
D|-2--2--2-2-2-2--2-2-2--2-2-0-|-2--2--2-2-2-4--4-4--4-4-0--------|     TO
A|-0--0--0-0-0-0--0-0-0--0-0-0-|-2--2--2-2-2-4--4-4--4-4-0--------|     PART
E|-x--x--x-x-x-x--x-x-x--x-x-0-|-0--0--0-0-0-2--2-2--2-2-0--------|     TWO
   D  D  D U D U  U D U  U D U   D  D  D U D U  U D  D U D

Intro 2 [part 2]:
e|---------x-x-x-----------------|----------------------------------------| DO BOTH
B|---------x-x-x-----------------|----------------------------------------| PARTS
G|-4--4-4--x-x-x-2--2-2-2--2-2-0-|-x--x--x-x-x-x--x-x--x-x-x-0------------| OF
D|-2--2-2--x-x-x-2--2-2-2--2-2-0-|-2--2--2-2-2-4--4-4--4-4-4-0--| INTRO 2-|
A|-0--0-0--x-x-x-0--0-0-0--0-0-0-|-2--2--2-2-2-4--4-4--4-4-4-0------------| TWO
E|-x--x-x--x-x-x-x--x-x-x--x-x-0-|-0--0--0-0-0-2--2-2--2-2-2-0------------| TIMES
   U  U D  D U D U  U D U  U D U   D  D  D U D U  U D  D U D U

{after the second time, go straight to Pre-Verse}

Pre-Verse:
e|-------------------------------------------|
B|-------------------------------------------|
G|--------------------------------------0///-|
D|-2---2---2---2---2---2--2-2-2-2-2-2-2-0----|
A|-2---2---2---2---2---2--2-2-2-2-2-2-2-0///-|
E|-0---0---0---0---0---0--0-0-0-0-0-0-0-0----|
   D   D   D   D   D   D  D U D U D U D U

{after the end upstroke, slide your fingers on the A and G string up to the 11th and 
13th frets, respectively, to start the verse}

Verse [option 1]:
e|----------                       e|-----                 |
B|----------  DO THIS          \   B|-----  DO THIS        | DO THESE PARTS
G|///-13-13-  ONE SEGMENT   ----\  G|-9-9-  ONE            | FOUR TIMES AS
D|----x--x--  TWELVE TIMES  ----/  D|-x-x-  SEGMENT        | A TOTAL
A|///-11-11-  THEN             /   A|-7-7-  FOUR TIMES     |
E|----------                       E|-----                 |
      D  U                            D U
      |__|                            |_|
   one segment                     one segment

{you can either do this for the verse, or do a simpler version which is:}

Verse [option 2]:
e|--------                       e|-----                 |
B|--------  DO THIS          \   B|-----  DO THIS        | DO THESE PARTS
G|///-----  ONE SEGMENT   ----\  G|-2-2-  ONE            | FOUR TIMES AS
D|----2-2-  TWELVE TIMES  ----/  D|-2-2-  SEGMENT        | A TOTAL
A|///-2-2-  THEN             /   A|-0-0-  FOUR TIMES     |
E|----0-0-                       E|-----                 |
      D U                           D U
      |_|                           |_|
   one segment                  one segment

{you can choose which one you think sounds better, or is easier to play, but they both 
sound decent. After you've played this, move onto the Pre-Chorus}:

Pre-Chorus [part 1]:
e|----------------------------------------------------------|   CONTINUE
B|----------------------------------------------------------|   STRAIGHT
G|-4--4-4-4-4-4-4-4-4-4-4--6--2--2-2-2--2-2-2--2-2-2-2-2-2--|   ON
D|-4--4-4-4-4-4-4-4-4-4-4--6--2--2-2-2--2-2-2--2-2-2-2-2-2--|   TO
A|-2--2-2-2-2-2-2-2-2-2-2--4--0--0-0-0--0-0-0--0-0-0-0-0-0--|   PART
E|----------------------------------------------------------|   TWO
   D  D U D U D U D U D D  D  D  D U D  D U D  D U D U D U

Pre-Chorus [part 2]:
e|---------------------------------------------------------|
B|---------------------------------------------------------|
G|-4--4-4-4-4-4-4-4-2--4--6------------------------------0-|
D|-4--4-4-4-4-4-4-4-2--4--6--7--7-7--7-7-7-6--6-6--6-6-6-0-|
A|-2--2-2-2-2-2-2-2-0--2--4--7--7-7--7-7-7-7--7-7--7-7-7-0-|
E|---------------------------5--5-5--5-5-5-4--4-4--4-4-4-0-|
   D  D U D U D U D D  D  D  D  U D  D U D U  U D  D U D U

{as you guessed, after this, go to the Chorus. Again, you have a choice of what to play 
- you can either play the same as the (Intro 2) and (Pre-Verse) or you can play a solo-y 
style thing. It's your choice:}

Chorus [option 1] [part 1]:
e|-----------------------------|----------------------------------|     CONTINUE
B|-----------------------------|----------------------------------|     STRAIGHT
G|-4--4--4-4-4-2--2-2-2--2-2-0-|-x--x--x-x-x-x--x-x--x-x-0--------|     ON
D|-2--2--2-2-2-2--2-2-2--2-2-0-|-2--2--2-2-2-4--4-4--4-4-0--------|     TO
A|-0--0--0-0-0-0--0-0-0--0-0-0-|-2--2--2-2-2-4--4-4--4-4-0--------|     PART
E|-x--x--x-x-x-x--x-x-x--x-x-0-|-0--0--0-0-0-2--2-2--2-2-0--------|     TWO
   D  D  D U D U  U D U  U D U   D  D  D U D U  U D  D U D

Chorus [option 1] [part 2]:
e|---------x-x-x-----------------|------------------------------|
B|---------x-x-x-----------------|------------------------------| DO THE
G|-4--4-4--x-x-x-2--2-2-2--2-2-0-|-x--x--x-x-x-x--x-x--x-x-x-0--| TWO PARTS
D|-2--2-2--x-x-x-2--2-2-2--2-2-0-|-2--2--2-2-2-4--4-4--4-4-4-0--| A TOTAL OF
A|-0--0-0--x-x-x-0--0-0-0--0-0-0-|-2--2--2-2-2-4--4-4--4-4-4-0--| TWO TIMES
E|-x--x-x--x-x-x-x--x-x-x--x-x-0-|-0--0--0-0-0-2--2-2--2-2-2-0--|
   U  U D  D U D U  U D U  U D U   D  D  D U D U  U D  D U D U

{after this, do the same as the (Pre-Verse):}

Chorus [option 1] [part 3]:
e|-------------------------------------------|
B|-------------------------------------------|
G|--------------------------------------0///-|
D|-2---2---2---2---2---2--2-2-2-2-2-2-2-0----|
A|-2---2---2---2---2---2--2-2-2-2-2-2-2-0///-|
E|-0---0---0---0---0---0--0-0-0-0-0-0-0-0----|
   D   D   D   D   D   D  D U D U D U D U

{this is what I could play - but you could also play this, it's entirely up to you:}

Chorus [option 2] [part 1]:
e|---------------------------------------------------|   CONTINUE
B|------------------------9-----9-----10---10--9--7--|   STRAIGHT
G|-9-----9---9----9----9-----9-----9-----9-----------|   ON
D|----7----7----7----7-------------------------------|   TO
A|---------------------------------------------------|   PART
E|---------------------------------------------------|   TWO

Chorus [option 2] [part 2]:
e|----------------------------------------------------|
B|--------------------------9-----9-----7-----7-----7-| DO THE
G|-9-----x-x-x--9---9----9-----9-----9-----9-----9----| TWO PARTS
D|----7--x-x-x----7----7------------------------------| A TOTAL OF
A|----------------------------------------------------| TWO TIMES
E|----------------------------------------------------|

{after this, do the same as the (Pre-Verse):}

Chorus [option 2] [part 3]:
e|-------------------------------------------|
B|-------------------------------------------|
G|--------------------------------------0///-|
D|-2---2---2---2---2---2--2-2-2-2-2-2-2-0----|
A|-2---2---2---2---2---2--2-2-2-2-2-2-2-0///-|
E|-0---0---0---0---0---0--0-0-0-0-0-0-0-0----|
   D   D   D   D   D   D  D U D U D U D U

{then it's the whole cycle again, from the (Verse) to the PART 2 of each chorus EXCEPT 
there are a few changes - look out for them:}

Verse [option 1]:
e|----------                       e|-----                 |
B|----------  DO THIS          \   B|-----  DO THIS        | DO THESE PARTS
G|///-13-13-  ONE SEGMENT   ----\  G|-9-9-  ONE            | TWO TIMES AS
D|----x--x--  TWELVE TIMES  ----/  D|-x-x-  SEGMENT        | A TOTAL
A|///-11-11-  THEN             /   A|-7-7-  FOUR TIMES     |
E|----------                       E|-----                 |
      D  U                            D U
      |__|                            |_|
   one segment                     one segment

{simple version again:}

Verse [option 2]:
e|--------                       e|-----                 |
B|--------  DO THIS          \   B|-----  DO THIS        | DO THESE PARTS
G|///-----  ONE SEGMENT   ----\  G|-2-2-  ONE            | TWO TIMES AS
D|----2-2-  TWELVE TIMES  ----/  D|-2-2-  SEGMENT        | A TOTAL
A|///-2-2-  THEN             /   A|-0-0-  FOUR TIMES     |
E|----0-0-                       E|-----                 |
      D U                           D U
      |_|                           |_|
   one segment                  one segment

{then the Pre-Verse again}:

Pre-Chorus [part 1]:
e|----------------------------------------------------------|   CONTINUE
B|----------------------------------------------------------|   STRAIGHT
G|-4--4-4-4-4-4-4-4-4-4-4--6--2--2-2-2--2-2-2--2-2-2-2-2-2--|   ON
D|-4--4-4-4-4-4-4-4-4-4-4--6--2--2-2-2--2-2-2--2-2-2-2-2-2--|   TO
A|-2--2-2-2-2-2-2-2-2-2-2--4--0--0-0-0--0-0-0--0-0-0-0-0-0--|   PART
E|----------------------------------------------------------|   TWO
   D  D U D U D U D U D D  D  D  D U D  D U D  D U D U D U

Pre-Chorus [part 2]:
e|---------------------------------------------------------|
B|---------------------------------------------------------|
G|-4--4-4-4-4-4-4-4-2--4--6------------------------------0-|
D|-4--4-4-4-4-4-4-4-2--4--6--7--7-7--7-7-7-6--6-6--6-6-6-0-|
A|-2--2-2-2-2-2-2-2-0--2--4--7--7-7--7-7-7-7--7-7--7-7-7-0-|
E|---------------------------5--5-5--5-5-5-4--4-4--4-4-4-0-|
   D  D U D U D U D D  D  D  D  U D  D U D U  U D  D U D U

{then back to the Chorus. Again choose which one is better for your needs - but this 
time, only go the FIRST and SECOND parts, DO NOT DO THE THIRD PART - you'll see why:}

Chorus [option 1] [part 1]:
e|-----------------------------|----------------------------------|     CONTINUE
B|-----------------------------|----------------------------------|     STRAIGHT
G|-4--4--4-4-4-2--2-2-2--2-2-0-|-x--x--x-x-x-x--x-x--x-x-0--------|     ON
D|-2--2--2-2-2-2--2-2-2--2-2-0-|-2--2--2-2-2-4--4-4--4-4-0--------|     TO
A|-0--0--0-0-0-0--0-0-0--0-0-0-|-2--2--2-2-2-4--4-4--4-4-0--------|     PART
E|-x--x--x-x-x-x--x-x-x--x-x-0-|-0--0--0-0-0-2--2-2--2-2-0--------|     TWO
   D  D  D U D U  U D U  U D U   D  D  D U D U  U D  D U D

Chorus [option 1] [part 2]:
e|---------x-x-x-----------------|------------------------------|
B|---------x-x-x-----------------|------------------------------| DO THE
G|-4--4-4--x-x-x-2--2-2-2--2-2-0-|-x--x--x-x-x-x--x-x--x-x-x-0--| TWO PARTS
D|-2--2-2--x-x-x-2--2-2-2--2-2-0-|-2--2--2-2-2-4--4-4--4-4-4-0--| A TOTAL OF
A|-0--0-0--x-x-x-0--0-0-0--0-0-0-|-2--2--2-2-2-4--4-4--4-4-4-0--| TWO TIMES
E|-x--x-x--x-x-x-x--x-x-x--x-x-0-|-0--0--0-0-0-2--2-2--2-2-2-0--|
   U  U D  D U D U  U D U  U D U   D  D  D U D U  U D  D U D U

{play that or play this, again, your call:}

Chorus [option 2] [part 1]:
e|---------------------------------------------------|   CONTINUE
B|------------------------9-----9-----10---10--9--7--|   STRAIGHT
G|-9-----9---9----9----9-----9-----9-----9-----------|   ON
D|----7----7----7----7-------------------------------|   TO
A|---------------------------------------------------|   PART
E|---------------------------------------------------|   TWO

Chorus [option 2] [part 2]:
e|----------------------------------------------------|
B|--------------------------9-----9-----7-----7-----7-| DO THE
G|-9-----x-x-x--9---9----9-----9-----9-----9-----9----| TWO PARTS
D|----7--x-x-x----7----7------------------------------| A TOTAL OF
A|----------------------------------------------------| TWO TIMES
E|----------------------------------------------------|

{after the PART 2 parts of the (Chorus), there's a bridge. It's easy to play and only 
one way ot play it - so play it straight after the second part of whichever chorus you 
decide to play:}

Bridge [part 1]:
e|-------------------------------------------------|  CONTINUE
B|-------------------------------------------------|  STRAIGHT
G|-9-9-9-9-9-9-9/11--9-9-9-9-9-9\8-8-8-8-8-8-8-8---|-  ON
D|-x-x-x-x-x-x-x/x---x-x-x-x-x-x\x-x-x-x-x-x-x-x---|-  TO
A|-7-7-7-7-7-7-7/9---7-7-7-7-7-7\6-6-6-6-6-6-6-6---|-  PART
E|-------------------------------------------------|  TWO
   D U D U D U D U   U D U D U D U D U D U D U D

Bridge [part 2]:
e|---------------------------------------------------|  CONTINE
B|---------------------------------------------------|  STRAIGHT
G|-9-9-9-9-9-9-9-9/11--9-9-9-9-9-9/11--9-9-9-9-9-9---|  ON
D|-x-x-x-x-x-x-x-x/x---x-x-x-x-x-x/X---x-x-x-x-x-x---|  TO
A|-7-7-7-7-7-7-7-7/9---7-7-7-7-7-7/9---7-7-7-7-7-7---|  PART
E|---------------------------------------------------|  THREE
   U D U D U D U D U   U D U D U D U   U D U D U D

Bridge [part 3]:
e|--------------------------------|
B|--------------------------------|
G|-6--6-6--6-6-6----------------0-|
D|-6--6-6--6-6-6-4--4-4-4-4-4-4-0-|
A|-4--4-4--4-4-4-4--4-4-4-4-4-4-0-|
E|---------------2--2-2-2-2-2-2-0-|
   D  U D  D U D U  U D U D U D U

{you do the bridge TWICE but on the second time, ONLY PLAY UP TO THE SECOND PART, 
because you need to play this:}

Bridge [SECOND TIME] [part 3]:
e|------------------------------|
B|------------------------------|
G|-6--6-6--6-6-6-4--4-4--4-4--2-|
D|-6--6-6--6-6-6-4--4-4--4-4--2-|
A|-4--4-4--4-4-4-2--2-2--2-2--0-|
E|------------------------------|
   D  U D  D U D U  U D  D U  U

{after this part, you play this multiple times - keep your strumming pattern in the same 
beat as the song - so it should be like this - AND BEFORE YOU ASK, YOU PLAY THE NOTE 32 
TIMES - it saves you counting:}

Bridge [SECOND TIME] [part 4]:
e|-----------------------------------------------------------------|
B|-----------------------------------------------------------------|
G|-2-2-2-2-2-2-2-2-2-2-2-2-2-2-2-2-2-2-2-2-2-2-2-2-2-2-2-2-2-2-2-2-|
D|-2-2-2-2-2-2-2-2-2-2-2-2-2-2-2-2-2-2-2-2-2-2-2-2-2-2-2-2-2-2-2-2-|
A|-0-0-0-0-0-0-0-0-0-0-0-0-0-0-0-0-0-0-0-0-0-0-0-0-0-0-0-0-0-0-0-0-|
E|-----------------------------------------------------------------|
   D U D U D U D U D U D U D U D U D U D U D U D U D U D U D U D U

{after this, it's back to the final chorus - this is extended compared to the usual 
above - you just play the whole thing 4 times instead of 2:}

Chorus [option 1] [part 1]:
e|-----------------------------|----------------------------------|     CONTINUE
B|-----------------------------|----------------------------------|     STRAIGHT
G|-4--4--4-4-4-2--2-2-2--2-2-0-|-x--x--x-x-x-x--x-x--x-x-0--------|     ON
D|-2--2--2-2-2-2--2-2-2--2-2-0-|-2--2--2-2-2-4--4-4--4-4-0--------|     TO
A|-0--0--0-0-0-0--0-0-0--0-0-0-|-2--2--2-2-2-4--4-4--4-4-0--------|     PART
E|-x--x--x-x-x-x--x-x-x--x-x-0-|-0--0--0-0-0-2--2-2--2-2-0--------|     TWO
   D  D  D U D U  U D U  U D U   D  D  D U D U  U D  D U D

Chorus [option 1] [part 2]:
e|---------x-x-x-----------------|------------------------------|
B|---------x-x-x-----------------|------------------------------| DO THE
G|-4--4-4--x-x-x-2--2-2-2--2-2-0-|-x--x--x-x-x-x--x-x--x-x-x-0--| TWO PARTS
D|-2--2-2--x-x-x-2--2-2-2--2-2-0-|-2--2--2-2-2-4--4-4--4-4-4-0--| A TOTAL OF
A|-0--0-0--x-x-x-0--0-0-0--0-0-0-|-2--2--2-2-2-4--4-4--4-4-4-0--| FOUR TIMES
E|-x--x-x--x-x-x-x--x-x-x--x-x-0-|-0--0--0-0-0-2--2-2--2-2-2-0--|
   U  U D  D U D U  U D U  U D U   D  D  D U D U  U D  D U D U

{again, here's the other way of playing it:}

Chorus [option 2] [part 1]:
e|---------------------------------------------------|   CONTINUE
B|------------------------9-----9-----10---10--9--7--|   STRAIGHT
G|-9-----9---9----9----9-----9-----9-----9-----------|   ON
D|----7----7----7----7-------------------------------|   TO
A|---------------------------------------------------|   PART
E|---------------------------------------------------|   TWO

Chorus [option 2] [part 2]:
e|----------------------------------------------------|
B|--------------------------9-----9-----7-----7-----7-| DO THE
G|-9-----x-x-x--9---9----9-----9-----9-----9-----9----| TWO PARTS
D|----7--x-x-x----7----7------------------------------| A TOTAL OF
A|----------------------------------------------------| FOUR TIMES
E|----------------------------------------------------|

{at the end of the entire song, it ends with:}

Chorus [option 1 + 2] [final part 3]:
e|--------------|
B|--------------|
G|--------------|
D|-2~~~~~~~~~~~-|
A|-2~~~~~~~~~~~-|
E|-0~~~~~~~~~~~-|
____________________________________________________________________________

And that's it! If I was you, I'd find it easier to print this tab and cross out the 
choices you don't want to play.
Suggest correction
Creating personal tab
Creating personal tab
You can edit any tab online and save it as your Personal.

You can edit, replace or remove any tab part or add personal notes – all changes will be seen only by you.

Personal tabs can be accessed anytime from any device, even offline.
Learn more »
comments
print report bad tab
guest
Wanna post a correction for this tab? Suggest correction