Oops, an error
Loading. Please wait.
We have an official Misery tab made by UG professional guitarists. Check out the tab »
×

Misery bass

version 1
version 1

Whole song

  • It is the only bass tab for Blink-182 Misery on th... Show more
  • This tab contains most (if not all) of Mark's litt... Show more

Interactive

1,231 views 18 this week
3 commentsread comments
1 2 3 4 5
x 4
add to favorites
×
Save as Personal and add changes to this tab that will be seen only by you. Learn more ›
×
You can save this tab as Personal to edit and correct it or add notes. All changes will be seen only by you. Learn more »
launch autoscroll
font size
0
reset
guitar tuner
edit
Autoscroll
slow
fast
+/-
esc
set tempo
stop
Author
Difficulty
About this tab version
It is the only bass tab for Blink-182 Misery on the platform also many people love this song and it would be beneficial to the community. Was this info helpful? Yes No
[Intro]
(Guitar plays intro)

[Verse]
G|------------------------------------------------------------------------------|
D|------------------5-5-5-5-5-5-5-5---------------------------------------------|
A|-7-7-7-7-7-7-7-7-------------------5-5-5-5-5-5-5-5----------------------------|
E|----------------------------------------------------8-8-8-8-8-8-8-8-----------|

G|------------------------------------------------------------------------------|
D|------------------5-5-5-5-5-5-5-5---------------------------------------------|
A|-7-7-7-7-7-7-7-7-------------------5-5-5-5-5-5-5-5----------------------------|
E|----------------------------------------------------8-8-8-8-8-8-8-8-----------|

[Pre-Chorus]
G|------------------------------------------------------------------------------|
D|------------------------------------------------------------------------------|
A|-7-7-7--3-3-3-----------------------------------------------------------------|
E|---------------3-3-3-3-3-3-3-3-3----------------------------------------------|

G|------------------------------------------------------------------------------|
D|------------------------------------------------------------------------------|
A|-7-7-7--3-3-3--5-5-5-5-5-5-5-5------------------------------------------------|
E|------------------------------------------------------------------------------|

[Chorus]
G|------------------------------------------------------------------------------|
D|------------------------------------------------------------------------------|
A|------------------5-5-5-5-5-5-5-5--7-7-7-7-7-7-7-7--3-3-3-3-3-3-3-3-----------|  (x2)
E|-3-3-3-3-3-3-3-3--------------------------------------------------------------|

[Verse]
G|------------------------------------------------------------------------------|
D|------------------5-5-5-5-5-5-5-5---------------------------------------------|
A|-7-7-7-7-7-7-7-7-------------------5-5-5-5-5-5-5-5----------------------------|
E|----------------------------------------------------8-8-8-8-8-8-8-8-----------|

G|------------------------------------------------------------------------------|
D|------------------5-5-5-5-5-5-5-5---------------------------------------------|
A|-7-7-7-7-7-7-7-7-------------------5-5-5-5-5-5-5-5----------------------------|
E|----------------------------------------------------8-8-8-8-8-8-8-8-----------|

[Pre-Chorus]
G|------------------------------------------------------------------------------|
D|------------------------------------------------------------------------------|
A|-7-7-7--3-3-3-----------------------------------------------------------------|
E|---------------3-3-3-3-3-3-3-3-3----------------------------------------------|

G|------------------------------------------------------------------------------|
D|------------------------------------------------------------------------------|
A|-7-7-7--3-3-3--5-5-5-5-5-5-5-5------------------------------------------------|
E|------------------------------------------------------------------------------|

[Chorus]
G|------------------------------------------------------------------------------|
D|------------------------------------------------------------------------------|
A|------------------5-5-5-5-5-5-5-5--7-7-7-7-7-7-7-7--3-3-3-3-3-3-3-3-----------|  (x2)
E|-3-3-3-3-3-3-3-3--------------------------------------------------------------|

[Bridge]
G|------------------------------------------------------------------------------|
D|------------------------------------------------------------------------------|
A|------------------5-5-5-5-5-5-5-5--7-7-7-7-7-7-7-7--3-3-3-3-3-3-3-3-----------|  (x4)
E|-3-3-3-3-3-3-3-3--------------------------------------------------------------|

[Chorus]
G|------------------------------------------------------------------------------|
D|------------------------------------------------------------------------------|
A|------------------5-5-5-5-5-5-5-5--7-7-7-7-7-7-7-7--3-3-3-3-3-3-3-3-----------| 
E|------------------------------------------------------------------------------|

G|------------------------------------------------------------------------------|
D|------------------------------------------------------------------------------|
A|------------------5-5-5-5-5-5-5-5--7-7-7-7-7-7-7-7--3-3-3-3-3-3-3-3-----------|  
E|-3-3-3-3-3-3-3-3--------------------------------------------------------------|

[Outro]
G|------------------------------------------------------------------------------|
D|------------------------------------------------------------------------------|
A|------------------5-5-5-5-5-5-5-5--7-7-7-7-7-7-7-7--3-3-3-3--3-3-3-3--3-3-----|  
E|-3-3-3-3-3-3-3-3------------------------------------------------------------3-|

            
            
Suggest correction
Creating personal tab
Creating personal tab
You can edit any tab online and save it as your Personal.

You can edit, replace or remove any tab part or add personal notes – all changes will be seen only by you.

Personal tabs can be accessed anytime from any device, even offline.
Learn more »
comments
print report bad tab
3 comments total.
+1 reply
primus182 160 Apr 12, 2017 06:58 PM

dude... you are missing like 80% of the bass line. where are all the cool lick ?

guest
You may want to rate the tab now too:
select rating
Wanna post a correction for this tab? Suggest correction