Oops, an error
Loading. Please wait.
We have an official Misery tab made by UG professional guitarists. Check out the tab »
×

Misery bass

version 2
version 2

Whole song

  • It is the only bass tab for Blink-182 Misery on th... Show more
  • This tab contains most (if not all) of Mark's litt... Show more

Interactive

1,564 views 30 this week
1 commentread comment
1 2 3 4 5
x 7
add to favorites
×
Save as Personal and add changes to this tab that will be seen only by you. Learn more ›
×
You can save this tab as Personal to edit and correct it or add notes. All changes will be seen only by you. Learn more »
launch autoscroll
font size
0
reset
guitar tuner
edit
Autoscroll
slow
fast
+/-
esc
set tempo
stop
Author
Difficulty
About this tab version
This tab contains most (if not all) of Mark's little fills. It's hard to get them perfect without an isolated bass track, but this is pretty dang close. Was this info helpful? Yes No
[Intro]
G|---------------------------------------------------|
D|---------------------------------------------------|
A|---------------------------------------------------|
E|--------------------NO-BASS------------------------|

[Verse]
G|-----------------|-----------------|-------------------------|-------------------------|
D|-----------------|-----------------|-------------------------|-------------------------|
A|-7-7-7-7-7-7-7-7-|-7-7-7-7-7-7-7-7-|-10-10-10-10-10-10-10-10-|-10-10-10-10-10-10-10-10-|
E|-----------------|-----------------|-------------------------|-------------------------|
   1 + 2 + 3 + 4 +   1 + 2 + 3 + 4 +   1  +  2  +  3  +  4  +    1  +  2  +  3  +  4  +

G|-------------------------|-------------------------|-----------------|--------------------|
D|-------------------------|-------------------------|-----------------|----------10--------|
A|-------------------------|-------------------------|-----------------|---10----------10---|
E|-10-10-10-10-10-10-10-10-|-10-10-10-10-10-12-12-12-|-8-8-8-8-8-8-8-8-|-8----8-8----8----8-|
   1  +  2  +  3  +  4  +    1  +  2  +  3  +  4  +    1 + 2 + 3 + 4 +   1 +  2 +  3 +  4 + 

G|-----------------|-----------------|-------------------------|-------------------------|
D|-----------------|-----------------|-------------------------|-------------------------|
A|-7-7-7-7-7-7-7-7-|-7-7-7-7-7-7-7-7-|-10-10-10-10-10-10-10-10-|-10-10-10-10-10-10-10-10-|
E|-----------------|-----------------|-------------------------|-------------------------|
   1 + 2 + 3 + 4 +   1 + 2 + 3 + 4 +   1  +  2  +  3  +  4  +    1  +  2  +  3  +  4  +

G|-------------------------|-------------------------|-----------------|-------------------|
D|-------------------------|-------------------------|-----------------|----------10-------|
A|-------------------------|-------------------------|-----------------|-------10----------|
E|-10-10-10-10-10-10-10-10-|-10-10-10-10-10-12-12-12-|-8-8-8-8-8-8-8-8-|-8-8-8-------8-8-8-|
   1  +  2  +  3  +  4  +    1  +  2  +  3  +  4  +    1 + 2 + 3 + 4 +   1 + 2  +  3 + 4 +

[Pre-Chorus]
G|------------|------------|------------|---------------|
D|------------|------------|------------|---------------|
A|-7-7-7------|-3-3-3------|------------|---------------|
E|------------|------------|-3--3--3--3-|-3--3--r-X-X-X-|
   1 + 2        1 + 2        1  2  3  4   1  2  3 + 4 + 

G|------------|------------|-------------------------|--------------------------|
D|------------|------------|-------------------------|--------------------------|
A|-7-7-7------|------------|-------------------------|--------------------------|
E|------------|-8-8-8------|-10-10-10-10-10-10-10-10-|-10-10-10-10-10-10-10-10\-|
   1 + 2        1 + 2        1  +  2  +  3  +  4  +    1  +  2  +  3  +  4  +  

[Chorus]
G|-----------------|----------------|-----------------|-----------------|
D|-----------------|----------------|-----------------|-----------------|
A|-----------------|----------0-2-3-|-5-5-5-5-5-5-5-5-|-5-5-5-5-2-2-3-3-|
E|-3-3-3-3-3-3-3-3-|3-3-3-3-3-------|-----------------|-----------------|
   1 + 2 + 3 + 4 +  1 + 2 + 3 + 4 +   1 + 2 + 3 + 4 +   1 + 2 + 3 + 4 +

G|-----------------|-----------------|-----------------|---7-7-5-5-4-4---|
D|-----------------|-----------------|-----------------|---------------5-|
A|-----------------|-----------------|-3-3-3-3-3-3-3-3-|-3---------------|
E|-0-0-0-0-0-0-0-0-|-0-0-0-0-0-0-0-0-|-----------------|-----------------|
   1 + 2 + 3 + 4 +   1 + 2 + 3 + 4 +   1 + 2 + 3 + 4 +   1 + 2 + 3 + 4 +

G|-----------------|----------------|-----------------|-----------------|
D|-----------------|----------------|-----------------|-----------------|
A|-----------------|----------0-2-3-|-5-5-5-5-5-5-5-5-|-5-5-5-5-2-2-3-3-|
E|-3-3-3-3-3-3-3-3-|3-3-3-3-3-------|-----------------|-----------------|
   1 + 2 + 3 + 4 +  1 + 2 + 3 + 4 +   1 + 2 + 3 + 4 +   1 + 2 + 3 + 4 +

G|-----------------|-----------------|-----------------|-----------------|
D|-----------------|-----------------|-----------------|-----------------|
A|-----------------|-----------------|-3-3-3-3-3-3-3-3-|-3\--------------|
E|-0-0-0-0-0-0-0-0-|-0-0-0-0-0-0-0-0-|-----------------|-----------------|
   1 + 2 + 3 + 4 +   1 + 2 + 3 + 4 +   1 + 2 + 3 + 4 +   1 + 2 + 3 + 4 +

[Intro]
G|---------------------------------------------------|
D|---------------------------------------------------|
A|---------------------------------------------------|
E|--------------------NO-BASS------------------------|

[Verse]
G|-9~------|-12~-----|-------------|---------|
D|-9~------|-12~-----|-12~---------|-10~-----|
A|-7~------|-10~-----|-12~---------|-10~-----|
E|---------|---------|-10~-----(12)|-8~------|
   1         1         1        +    1

G|-----------------|-----------------|-------------------------|-------------------------|
D|-----------------|-----------------|-------------------------|-------------------------|
A|-7-7-7-7-7-7-7-7-|-7-7-7-7-7-7-7-7-|-10-10-10-10-10-10-10-10-|-10-10-10-10-10-10-10-10-|
E|-----------------|-----------------|-------------------------|-------------------------|
   1 + 2 + 3 + 4 +   1 + 2 + 3 + 4 +   1  +  2  +  3  +  4  +    1  +  2  +  3  +  4  +

G|-------------------------|-------------------------|-----------------|-------------------|
D|-------------------------|-------------------------|-----------------|----------10-------|
A|-------------------------|-------------------------|-----------------|-------10----------|
E|-10-10-10-10-10-10-10-10-|-10-10-10-10-10-12-12-12-|-8-8-8-8-8-8-8-8-|-8-8-8-------8-8-8-|
   1  +  2  +  3  +  4  +    1  +  2  +  3  +  4  +    1 + 2 + 3 + 4 +   1 + 2  +  3 + 4 +

[Pre-Chorus]
G|------------|------------|------------|---------------|
D|------------|------------|------------|---------------|
A|-7-7-7------|-3-3-3------|------------|---------------|
E|------------|------------|-3--3--3--3-|-3--3--r-X-X-X-|
   1 + 2        1 + 2        1  2  3  4   1  2  3 + 4 + 

G|------------|------------|-------------------------|--------------------------|
D|------------|------------|-------------------------|--------------------------|
A|-7-7-7------|------------|-------------------------|--------------------------|
E|------------|-8-8-8------|-10-10-10-10-10-10-10-10-|-10-10-10-10-10-10-10-10\-|
   1 + 2        1 + 2        1  +  2  +  3  +  4  +    1  +  2  +  3  +  4  +  

[Chorus]
G|-----------------|----------------|-----------------|-----------------|
D|-----------------|----------------|-----------------|-----------------|
A|-----------------|----------0-2-3-|-5-5-5-5-5-5-5-5-|-5-5-5-5-2-2-3-3-|
E|-3-3-3-3-3-3-3-3-|3-3-3-3-3-------|-----------------|-----------------|
   1 + 2 + 3 + 4 +  1 + 2 + 3 + 4 +   1 + 2 + 3 + 4 +   1 + 2 + 3 + 4 +

G|-----------------|-----------------|-----------------|-----------------|
D|-----------------|-----------------|-----------------|---------5---5---|
A|-----------------|-----------------|-3-3-3-3-3-3-3-3-|-3-3-3-3---3---3-|
E|-0-0-0-0-0-0-0-0-|-0-0-0-0-0-0-0-0-|-----------------|-----------------|
   1 + 2 + 3 + 4 +   1 + 2 + 3 + 4 +   1 + 2 + 3 + 4 +   1 + 2 + 3 + 4 +

G|-----------------|----------------|-----------------|-----------------|
D|-----------------|----------------|-----------------|-----------------|
A|-----------------|----------0-2-3-|-5-5-5-5-5-5-5-5-|-5-5-5-5-2-2-3-3-|
E|-3-3-3-3-3-3-3-3-|3-3-3-3-3-------|-----------------|-----------------|
   1 + 2 + 3 + 4 +  1 + 2 + 3 + 4 +   1 + 2 + 3 + 4 +   1 + 2 + 3 + 4 +

G|-----------------|-----------------|-----------------|---7-7-5-5-4-4---|
D|-----------------|-----------------|-----------------|---------------5-|
A|-----------------|-----------------|-3-3-3-3-3-3-3-3-|-3---------------|
E|-0-0-0-0-0-0-0-0-|-0-0-0-0-0-0-0-0-|-----------------|-----------------|
   1 + 2 + 3 + 4 +   1 + 2 + 3 + 4 +   1 + 2 + 3 + 4 +   1 + 2 + 3 + 4 +

[Bridge, Part I]
G|-----------------|-----------------|-----------------|-----------------|
D|-----------------|-----------------|-----------------|-----------------|
A|-----------------|-----------------|-5-5-5-5-5-5-5-5-|-5-5-5-5-5-5-5-5-|
E|-3-3-3-3-3-3-3-3-|-3-3-3-3-3-3-3-3-|-----------------|-----------------|
   1 + 2 + 3 + 4 +   1 + 2 + 3 + 4 +   1 + 2 + 3 + 4 +   1 + 2 + 3 + 4 +

G|-----------------|-----------------|-----------------|-----------------|
D|-----------------|-----------------|-----------------|-----------------|
A|/7-7-7-7-7-7-7-7-|-7-7-7-7-7-7-7-7-|-3-3-3-3-3-3-3-3-|-3-3-3-3-3-3-3-3-|
E|-----------------|-----------------|-----------------|-----------------|
   1 + 2 + 3 + 4 +   1 + 2 + 3 + 4 +   1 + 2 + 3 + 4 +   1 + 2 + 3 + 4 +

[Bridge, Part II] x3
G|-----7-----7---7-|-----7---5---4---|-----2-----2---2-|-----5---4---2---|
D|-5-5---5-5---5---|-5-5---5---5---5-|-0-0---0-0---0---|-0-0---0---0---0-|
A|-----------------|-----------------|-----------------|-----------------|
E|-----------------|-----------------|-----------------|-----------------|
   1 + 2 + 3 + 4 +   1 + 2 + 3 + 4 +   1 + 2 + 3 + 4 +   1 + 2 + 3 + 4 +

G|-----4-----4---4-|-----4---2---0---|-----------------|--------------------|
D|-2-2---2-2---2---|-2-2---2---2---2-|-----5-----5---5-|-10-10-10-9-9-9-7-7-|
A|-----------------|-----------------|-3-3---3-3---3---|--------------------|
E|-----------------|-----------------|-----------------|--------------------|
   1 + 2 + 3 + 4 +   1 + 2 + 3 + 4 +   1 + 2 + 3 + 4 +   1  +  2  + 3 + 4 +

[Bridge, Part III]
G|-----7-----7---7-|-----7---5---4---|-----2-----2---2-|-----5---4---2---|
D|-5-5---5-5---5---|-5-5---5---5---5-|-0-0---0-0---0---|-0-0---0---0---0-|
A|-----------------|-----------------|-----------------|-----------------|
E|-----------------|-----------------|-----------------|-----------------|
   1 + 2 + 3 + 4 +   1 + 2 + 3 + 4 +   1 + 2 + 3 + 4 +   1 + 2 + 3 + 4 +

G|-----4-----4---4-|-----4---2---0---|-----------------|-----------------|
D|-2-2---2-2---2---|-2-2---2---2---2-|-5-5-5-5-5-5-5-5-|-5-5-5-5-5-5-5-5-|
A|-----------------|-----------------|-3-3-3-3-3-3-3-3-|-3-3-3-3-3-3-3-3-|
E|-----------------|-----------------|-----------------|-----------------|
   1 + 2 + 3 + 4 +   1 + 2 + 3 + 4 +   1 + 2 + 3 + 4 +   1 + 2 + 3 + 4 +

[Chorus]
G|-----------------|-----------------|----------------|
D|-----------------|-----------------|----------7-----|
A|-----------------|-5-5-5-5-5-5-5-5-|5-5-5-5-5---5-5-|
E|--NO-BASS-----15\|-----------------|----------------|
                     1 + 2 + 3 + 4 +   1 + 2 + 3 + 4 + 

G|-----------------|-----------------|-----------------|-----------------|
D|-----------------|-----------------|-------------4-4-|-5-5-7-7-5-5-4-4-|
A|-----------------|-----------------|-3-3-5-5-7-7-----|-----------------|
E|-0-0-0-0-0-0-0-0-|-0-0-0-0-0-0-0-0-|-----------------|-----------------|
   1 + 2 + 3 + 4 +   1 + 2 + 3 + 4 +   1 + 2 + 3 + 4 +   1 + 2 + 3 + 4 + 

G|-----------------|-----------------|-----------------|-----------------|
D|-----------------|-----------------|-----------------|---------5-5-4-4-|
A|-----------------|-----------------|-5-5-5-5-5-5-5-5-|-5-5-5-5---------|
E|-3-3-3-3-3-3-3-3-|-3-3-3-3-3-3-3-3-|-----------------|-----------------|
   1 + 2 + 3 + 4 +   1 + 2 + 3 + 4 +   1 + 2 + 3 + 4 +   1 + 2 + 3 + 4 + 

G|-----------------|-----------------|-----------------|-------------------|
D|-----------------|-----------------|-----------------|-------------------|
A|-----------------|-----------------|-3-3-3-3-3-3-3-3-|-3-3-7-7-9-9-10-10-|
E|-0-0-0-0-0-0-0-0-|-0-0-0-0-0-0-0-0-|-----------------|-------------------|
   1 + 2 + 3 + 4 +   1 + 2 + 3 + 4 +   1 + 2 + 3 + 4 +   1 + 2 + 3 + 4  + 

[Outro]
G|-------------------------|-------------------------|-14-14-14-14-14-14-14-14-|-14-14-14-14-14-14-14-14-|
D|-12-12-12-12-12-12-12-12-|-12-12-12-12-12-12-12-12-|-12-12-12-12-12-12-12-12-|-12-12-12-12-12-12-12-12-|
A|-10-10-10-10-10-10-10-10-|-10-10-10-10-10-10-10-10-|-------------------------|-------------------------|
E|-------------------------|-------------------------|-------------------------|-------------------------|
   1  +  2  +  3  +  4  +    1  +  2  +  3  +  4  +     1  +  2  +  3  +  4  +    1  +  2  +  3  +  4  +  

G|-----------------|-----------------|-X-12-12-12-12-12-12-12-|-X-12-12-12-12-12-12-12-|
D|-9-9-9-9-9-9-9-9-|-9-9-9-9-9-9-9-9-|-X-10-10-10-10-10-10-10-|-X-10-10-10-10-10-10-10-|
A|-7-7-7-7-7-7-7-7-|-7-7-7-7-7-7-7-7-|------------------------|------------------------|
E|-----------------|-----------------|------------------------|------------------------|
   1 + 2 + 3 + 4 +   1 + 2 + 3 + 4 +   1 +  2  +  3  +  4  +    1 +  2  +  3  +  4  +  

[Alternate Outro]
G|-----------------|-----------------|-----------------|-----------------|
D|-----------------|-----------------|-----------------|-----------------|
A|-----------------|-----------------|-5-5-5-5-5-5-5-5-|-5-5-5-5-5-5-5-5-|
E|-3-3-3-3-3-3-3-3-|-3-3-3-3-3-3-3-3-|-----------------|-----------------|
   1 + 2 + 3 + 4 +   1 + 2 + 3 + 4 +   1 + 2 + 3 + 4 +   1 + 2 + 3 + 4 + 

G|-----------------|-----------------|-----------------|-----------------|
D|-----------------|-----------------|-----------------|-----------------|
A|-7-7-7-7-7-7-7-7-|-7-7-7-7-7-7-7-7-|-----------------|-----------------|
E|-----------------|-----------------|-X-8-8-8-8-8-8-8-|-X-8-8-8-8-8-8-8-|
   1 + 2 + 3 + 4 +   1 + 2 + 3 + 4 +   1 + 2 + 3 + 4 +   1 + 2 + 3 + 4 + 

***********************************

| X   Dead note
| \   Slide Down
| ~   Vibrato
| r   Rest

*********************************** 
Suggest correction
Creating personal tab
Creating personal tab
You can edit any tab online and save it as your Personal.

You can edit, replace or remove any tab part or add personal notes – all changes will be seen only by you.

Personal tabs can be accessed anytime from any device, even offline.
Learn more »
comments
print report bad tab
1 comment total.
+1 reply
fontimpats 10 Apr 21, 2017 06:48 PM

sounds great

guest
You may want to rate the tab now too:
select rating
Wanna post a correction for this tab? Suggest correction