Oops, an error
Loading. Please wait.
We have an official Mms tab made by UG professional guitarists. Check out the tab »
×
8,328 views 12 this week
4 commentsread comments
1 2 3 4 5
x 8
add to favorites
×
Save as Personal and add changes to this tab that will be seen only by you. Learn more ›
×
You can save this tab as Personal to edit and correct it or add notes. All changes will be seen only by you. Learn more »
launch autoscroll
font size
0
reset
how to read this tab
guitar tuner
edit
Autoscroll
slow
fast
+/-
esc
set tempo
stop
Author
Band: Blink 182
Song: M&Ms
Tabbed By: loves.squier
UG has a bunch of WRONG tabs for this, so I came to put in my 2 cents. This is
99% Perfect. The chords are given, no strumming patterns. Sorry this is ALMOST a
complete beginners guide, not quite. I've heard this song live and Tom plays it
different and picks notes ALOT different and at the end instead of the solo a
bunch of times he does the bridge cause he's lazy.

h = hammer on
p = pull off
/ = slide

Intro =)
e|-0-|
B|-5-|
G|---|
D|---|
A|---|
E|---|

Solo (play fast!)
e|-0-4p0-5p0-7-5-4-5p4p0-0-2p0-4p0-5-4-2-0-|
B|-----------------------------------------|
G|-----------------------------------------|
D|-----------------------------------------|
A|-----------------------------------------|
E|-----------------------------------------|

Verse 

e|-----------------------------------------|
B|-----------------------------------------|
G|---9--------9--------9--------9----------|
D|-----(x4)-----(x4)-6---(x4)-7-----(x4)---| (x2)
A|-7--------9------------------------------|
E|-----------------------------------------|
(On the slide to 7 you can go from where you want I personally use 5 or 6,
5 sounds the best, 6 is easier)
e|-----------------------------------------|
B|-----------------------------------------|
G|-9---------------------------------------|
D|-9-(x figure it out)---------------------| (x2)
A|-7-------------------/7-7-9-7-6----------|
E|-----------------------------------------|

Chorus
(figure the strumming and all out on your own)
e|----------|
B|----------|
G|-------4--|
D|-4-7-2-4--| (x2)
A|-4-7-2-2--|
E|-2-5-0----|

Bridge
e|----------|
B|----------|
G|---4-6----|
D|-2-4-6-7--| (x2)
A|-2-2-4-7--|
E|-0-----5--|

Long Drawn Out Strumming

e|---|
B|---|
G|-9-|
D|-9-| (x6969696969696 who knows figure it out do whatever you want)
A|-7-|
E|---|

Order: (the things that have 1x next to them are all played the way
I wrote them above with the x's I did up there)
Intro 1x =)
Solo 4x
Verse 1x
Chorus 1x
Solo 4x
Verse 1x
Chorus 1x
Bride 1x
Long Drawn Out Strumming x1
Solo x8

            
            
Suggest correction
Creating personal tab
Creating personal tab
You can edit any tab online and save it as your Personal.

You can edit, replace or remove any tab part or add personal notes – all changes will be seen only by you.

Personal tabs can be accessed anytime from any device, even offline.
Learn more »
comments
print report bad tab
4 comments total. Showing first comments.
0 reply
loves.squier 70 Feb 07, 2003 07:00 PM

bla the verse for the strumming part should be 4x

0 reply
g33kinth3c0rn3r 10 May 20, 2006 08:55 AM

too me the solo doesnt sound rite...
i think it should b:

-0-4p0-0-5p0-0-7-0-5-4-5p4p0--2p0-0-4p0-0-5-4p0-2p0----------
-------------------------------------------------------------
-------------------------------------------------------------
-------------------------------------------------------------
-------------------------------------------------------------
-------------------------------------------------------------

0 reply
g33kinth3c0rn3r 10 May 20, 2006 08:55 AM

too me the solo doesnt sound rite...
i think it should b:

p=pulloff

-0-4p0-0-5p0-0-7-0-5-4-5p4p0--2p0-0-4p0-0-5-4p0-2p0----------
-------------------------------------------------------------
-------------------------------------------------------------
-------------------------------------------------------------
-------------------------------------------------------------
-------------------------------------------------------------

guest
You may want to rate the tab now too:
select rating
Wanna post a correction for this tab? Suggest correction