Oops, an error
Loading. Please wait.
We have an official Mutt tab made by UG professional guitarists. Check out the tab »
×
3,243 views 24 this week
1 commentread comment
1 2 3 4 5
x 5
add to favorites
×
Save as Personal and add changes to this tab that will be seen only by you. Learn more ›
×
You can save this tab as Personal to edit and correct it or add notes. All changes will be seen only by you. Learn more »
launch autoscroll
font size
0
reset
how to read this tab
guitar tuner
edit
Autoscroll
slow
fast
+/-
esc
set tempo
stop
Author
Difficulty
-------------------------------------------------------------------------------
Song: Mutt
Artist: Blink 182
Album: Enema of the State

I have not found a great tab for this song on here so I decided to make one.
            
-------------------------------------------------------------------------------
Tabbed by: Evan (Hardcoreman94)

Tuning:Standard


Intro
Repeat X2
e|---------------------------------------------------------------------------|
B|---------------------------------------------------------------------------|
G|-----6-------6-------6-------6-------6-------6-------6-------6-------------|
D|--7-------7-------7-------7-------7-------7-------7-------7----------------|
A|-------7-------7-------7-------7-------7-------7-------7-------7-----------|
E|---------------------------------------------------------------------------|
   Let notes ring out

Verse:
Repeat X2
e|---------------------------------------------------------------------------|
B|---------------------------------------------------------------------------|
G|--------2-------2------2h4-----2h4------6------6------2h4------2h4---------|
D|-------------------------------------------------2--2-----2--2-------------|
A|--0--0----0--0----0--0-----0--0----0--4---4--4-----------------------------|
E|---------------------------------------------------------------------------|
PM  *  *    *  *    *  *     *  *    *  *   *  *   *  *     *  *

Pre chorus
Repeat this part twice
e|---------------------------------------------------------------------------|
B|---------------------------------------------------------------------------|
G|--2-2-2-2--2-2-2-2---------------------------------------------------------|
D|--2-2-2-2--2-2-2-2--4-4-4-4--2-2-2-2---------------------------------------|
A|--0-0-0-0--0-0-0-0--4-4-4-4--2-2-2-2---------------------------------------|
E|--------------------2-2-2-2--0-0-0-0---------------------------------------|

then play this once
e|---------------------------------------------------------------------------|
B|---------------------------------------------------------------------------|
G|--7-7-7-7-7-7-7-7-7-7-7-7--9-9-9-9-----------------------------------------|
D|--7-7-7-7-7-7-7-7-7-7-7-7--9-9-9-9-----------------------------------------|
A|--5-5-5-5-5-5-5-5-5-5-5-5--7-7-7-7-----------------------------------------|
E|---------------------------------------------------------------------------|


Chorus
Repeat X6
e|---------------------------------------------------------------------------|
B|---------------------------------------------------------------------------|
G|---------------------------------------------------------------------------|
D|--7--7-7-7-7-7--7--7-7-7-7-7--7--7-7-7-7-7--7-7--7-7-----------------------|
A|--x--x-x-x-x-x--x--x-x-x-x-x--x--x-x-x-x-x--5-5--4-4-----------------------|
E|--5--5-5-5-5-5--5--5-5-5-5-5--7--7-7-7-7-7---------------------------------|

Play intro part again
Repeat X2
e|---------------------------------------------------------------------------|
B|---------------------------------------------------------------------------|
G|-----6-------6-------6-------6-------6-------6-------6-------6-------------|
D|--7-------7-------7-------7-------7-------7-------7-------7----------------|
A|-------7-------7-------7-------7-------7-------7-------7-------7-----------|
E|---------------------------------------------------------------------------|

Play verse again
Repeat X2
e|---------------------------------------------------------------------------|
B|---------------------------------------------------------------------------|
G|--------2-------2------2h4-----2h4------6------6------2h4------2h4---------|
D|-------------------------------------------------2--2-----2--2-------------|
A|--0--0----0--0----0--0-----0--0----0--4---4--4-----------------------------|
E|---------------------------------------------------------------------------|
PM  *  *    *  *    *  *     *  *    *  *   *  *   *  *     *  *

Play Pre Chorus again
Repeat this part X2
e|---------------------------------------------------------------------------|
B|---------------------------------------------------------------------------|
G|--2-2-2-2--2-2-2-2---------------------------------------------------------|
D|--2-2-2-2--2-2-2-2--4-4-4-4--2-2-2-2---------------------------------------|
A|--0-0-0-0--0-0-0-0--4-4-4-4--2-2-2-2---------------------------------------|
E|--------------------2-2-2-2--0-0-0-0---------------------------------------|

then play this X1
e|---------------------------------------------------------------------------|
B|---------------------------------------------------------------------------|
G|--7-7-7-7-7-7-7-7-7-7-7-7--9-9-9-9-----------------------------------------|
D|--7-7-7-7-7-7-7-7-7-7-7-7--9-9-9-9-----------------------------------------|
A|--5-5-5-5-5-5-5-5-5-5-5-5--7-7-7-7-----------------------------------------|
E|---------------------------------------------------------------------------|

Chorus
Repeat X6
e|---------------------------------------------------------------------------|
B|---------------------------------------------------------------------------|
G|---------------------------------------------------------------------------|
D|--7--7-7-7-7-7--7--7-7-7-7-7--7--7-7-7-7-7--7-7--7-7-----------------------|
A|--x--x-x-x-x-x--x--x-x-x-x-x--x--x-x-x-x-x--5-5--4-4-----------------------|
E|--5--5-5-5-5-5--5--5-5-5-5-5--7--7-7-7-7-7---------------------------------|

Palm muted chorus variation thing 
Repeat X2
e|---------------------------------------------------------------------------|
B|---------------------------------------------------------------------------|
G|---------------------------------------------------------------------------|
D|------------------7-7--6-6-------------------------------------------------|
A|--7-7-----9-9-----5-5--4-4-------------------------------------------------|
E|--5-5-----7-7--------------------------------------------------------------|
PM  * *     * *     * *  * *

Play the intro part again
X1
e|---------------------------------------------------------------------------|
B|---------------------------------------------------------------------------|
G|-----6-------6-------6-------6-------6-------6-------6-------6-------------|
D|--7-------7-------7-------7-------7-------7-------7-------7----------------|
A|-------7-------7-------7-------7-------7-------7-------7-------7-----------|
E|---------------------------------------------------------------------------|

Chorus
Repeat X4
e|---------------------------------------------------------------------------|
B|---------------------------------------------------------------------------|
G|---------------------------------------------------------------------------|
D|--7--7-7-7-7-7--7--7-7-7-7-7--7--7-7-7-7-7--7-7--7-7-----------------------|
A|--x--x-x-x-x-x--x--x-x-x-x-x--x--x-x-x-x-x--5-5--4-4-----------------------|
E|--5--5-5-5-5-5--5--5-5-5-5-5--7--7-7-7-7-7---------------------------------|

Outro
let power chords ring
e|---------------------------------------------------------------------------|
B|---------------------------------------------------------------------------|
G|---------------------------------------------------------------------------|
D|--7-7------9-9--------7-7--7-7--7-7------9-9--------7-7--7-7--7------------|
A|--7-7------9-9--------5-5--4-4--7-7------9-9--------5-5--4-4--7------------|
E|--5-5------7-7------------------5-5------7-7------------------5------------|


************************************
| *   Palm Mute
| /   slide up
| \   slide down
| h   hammer-on
| p   pull-off
| ~   vibrato
| +   harmonic
| x   Mute note
| b   Bend
| pb  Pre-bend
| br  Bend release
| pbr Pre-bend release
| brb Bend release bend

************************************

            
            
Suggest correction
Creating personal tab
Creating personal tab
You can edit any tab online and save it as your Personal.

You can edit, replace or remove any tab part or add personal notes – all changes will be seen only by you.

Personal tabs can be accessed anytime from any device, even offline.
Learn more »
comments
print report bad tab
1 comment total.
0 reply
ebyakut 14 Mar 22, 2016 05:44 PM

great tab!

guest
You may want to rate the tab now too:
select rating
Wanna post a correction for this tab? Suggest correction