Oops, an error
Loading. Please wait.

Mutt bass

version 3
version 3
6,197 views 6 this week
6 commentsread comments
1 2 3 4 5
x 11
add to favorites
×
Save as Personal and add changes to this tab that will be seen only by you. Learn more ›
×
You can save this tab as Personal to edit and correct it or add notes. All changes will be seen only by you. Learn more »
launch autoscroll
font size
0
reset
guitar tuner
edit
Autoscroll
slow
fast
+/-
esc
set tempo
stop
Author
Difficulty
-------------------------------------------------------------------------------
			     MUTT - Blink 182
-------------------------------------------------------------------------------

Tabbed By : bloogy182


Tuning:Standard (E,A,D,G)

Intro (x1)
G|----9----9----9----9----9----9----9----9-------------------------------------------|
D|-77---77---77---77---77---77---77---77------7----7----7----7----7----7----7----7---|
A|-----------------------------------------55---55---55---55---55---55---55---55-----|
E|-----------------------------------------------------------------------------------|

Intro Pt. 2 (x2)
G|----------------------------------------------------------------------------------|
D|----------------------------------------------------------------------------------|
A|-----------------------------------------55555555-55555555-55555555-9-9-7-7-5-5---|
E|-55555555-55555555-55555555-7-7-8-8-9-9-------------------------------------------|

Verse 1 (x2)
G|---------------------------------------------------------------------------|
D|---------------------------------------------------------------------------|
A|-------------------55555555-77777777---------------------------------------|
E|-55555555-55555555---------------------------------------------------------|

Chorus (x2)
G|-------------------------------------|
D|-------------------------------------|
A|-------------------55555555-77777777-|
E|-55555555-55555555-------------------|
Chorus (cont.) (x1)
G|-------------------------------------|
D|-------------------------------------|
A|-55555555-55555555-55555555-77777777-|
E|-------------------------------------|

Verse 2 (x6)
G|---------------------------------------------------------------------------|
D|------2-4-2------2-4-2------2-4-2----7----6--------------------------------|
A|-0-00-------0-00-------2-22--------5----4----------------------------------|
E|---------------------------------------------------------------------------|

Break (x2)
G|----------------------------------------------------------------------------------|
D|----------------------------------------------------------------------------------|
A|-----------------------------------------55555555-55555555-55555555-9-9-7-7-5-5---|
E|-55555555-55555555-55555555-7-7-8-8-9-9-------------------------------------------|

Verse 1 (x2)
G|---------------------------------------------------------------------------|
D|---------------------------------------------------------------------------|
A|-------------------55555555-77777777---------------------------------------|
E|-55555555-55555555---------------------------------------------------------|

Chorus (x2)
G|-------------------------------------|
D|-------------------------------------|
A|-------------------55555555-77777777-|
E|-55555555-55555555-------------------|
Chorus (cont.) (x1)
G|-------------------------------------|
D|-------------------------------------|
A|-55555555-55555555-55555555-77777777-|
E|-------------------------------------|

Verse 2 (x6)
G|---------------------------------------------------------------------------|
D|------2-4-2------2-4-2------2-4-2----7----6--------------------------------|
A|-0-00-------0-00-------2-22--------5----4----------------------------------|
E|---------------------------------------------------------------------------|

Bridge (x2)
G|---------------------------------------------------------------------------|
D|---------------------------------------------------------------------------|
A|-------55-----77-----55----------------------------------------------------|
E|-55------------------------------------------------------------------------|

Verse 2 (x6)
G|---------------------------------------------------------------------------|
D|------2-4-2------2-4-2------2-4-2----7----6--------------------------------|
A|-0-00-------0-00-------2-22--------5----4----------------------------------|
E|---------------------------------------------------------------------------|

Outro (x1)
G|---------------------------------------------------------------------------|
D|---------------------------------------------------------------------------|
A|-----55--77-55------55--77-55----------------------------------------------|
E|-5--------------5-------------5--------------------------------------------|

This song is really great and the bassline rules! Njoy!

Suggest correction
Creating personal tab
Creating personal tab
You can edit any tab online and save it as your Personal.

You can edit, replace or remove any tab part or add personal notes – all changes will be seen only by you.

Personal tabs can be accessed anytime from any device, even offline.
Learn more »
comments
print report bad tab
6 comments total. Showing first comments.
0 reply
repsac_hoppus 10 Mar 03, 2006 04:47 PM

good tab but why the hell did you put it under advanced?

0 reply
bloogy182 437 Apr 21, 2006 06:31 AM

soz but i just thought dat the 2nd verse was quite a stretch on da fingers. maybe i''l change it den, if it'll boost my rating!

0 reply
repsac_hoppus 10 Apr 23, 2006 05:08 AM

i think the 2nd verse goes like this:

g---------------------------------------|
d-------------------------4-------------|
a--000-7h-9p-000-7h-9p-222-2-555-7h-9p--|
e---------------------------------------|

I think thats the right one.

guest
You may want to rate the tab now too:
select rating
Wanna post a correction for this tab? Suggest correction