Oops, an error
Loading. Please wait.
We have an official Mutt tab made by UG professional guitarists. Check out the tab »
×
33,204 views 42 this week
5 commentsread comments
1 2 3 4 5
x 19
add to favorites
×
Save as Personal and add changes to this tab that will be seen only by you. Learn more ›
×
You can save this tab as Personal to edit and correct it or add notes. All changes will be seen only by you. Learn more »
launch autoscroll
font size
0
reset
guitar tuner
edit
Autoscroll
slow
fast
+/-
esc
set tempo
stop
----------------------------------------------------------------------------
			     MUTT - Blink 182
----------------------------------------------------------------------------

Tabbed By :alfonzthemonkey
e-mail:alfonzothemonkey@hotmail.co.uk

Tuning:standard

intro:
G|--9--9--9--9--9--9--9--9---------------------------|
D|77-77-77-77-77-77-77-77----7--7--7--7--7--7--7--7--|
A|-------------------------55-55-55-55-55-55-55-55---| x1
E|---------------------------------------------------|

riff 1:
G|---------------------------------------------------------------------|
D|-----------------------------------------------------------4444-2222-|
A|000000000000000000000000-2222-4444-555555555555555555555555----------|
E|---------------------------------------------------------------------|

G|---------------------------------------------------------------------|
D|---------------------------------------------------22222222-00000000-|
A|000000000000000000000000-2222-4444-5555555555555555------------------|
E|---------------------------------------------------------------------|

verse:
G|---------------------------------|
D|---------------44444444-22222222-|
A|000-000-000-2-4------------------| x4
E|---------------------------------|

G|----------------------------------|
D|000000000000000000000000-22222222-|
A|----------------------------------| x1
E|----------------------------------|

riff 2:
G|---------------------------------------------|
D|--------------------------------4------------|
A|00(0)-7h9p7---00(0)-7h9p7--22(2)-2--55(5)775-| x6
E|---------------------------------------------|

riff 1:
G|---------------------------------------------------------------------|
D|-----------------------------------------------------------4444-2222-|
A|000000000000000000000000-2222-4444-555555555555555555555555----------|
E|---------------------------------------------------------------------|

G|---------------------------------------------------------------------|
D|---------------------------------------------------22222222-00000000-|
A|000000000000000000000000-2222-4444-5555555555555555------------------|
E|---------------------------------------------------------------------|

verse:
G|---------------------------------|
D|---------------44444444-22222222-|
A|000-000-000-2-4------------------| x4
E|---------------------------------|

G|----------------------------------|
D|000000000000000000000000-22222222-|
A|----------------------------------| x1
E|----------------------------------|

riff 2:
G|---------------------------------------------|
D|--------------------------------4------------|
A|00(0)-7h9p7---00(0)-7h9p7--22(2)-2--55(5)775-| x6
E|---------------------------------------------|

riff 3:
G|-------------------------------------------|
D|-------------------------------------------|
A|00-(pause)-22--55-44--00-(pause)-22--55-44-|
E|-------------------------------------------|

riff 2:
G|---------------------------------------------|
D|--------------------------------4------------|
A|00(0)-7h9p7---00(0)-7h9p7--22(2)-2--55(5)775-| x6
E|---------------------------------------------|

outro:
G|---------------------------------------------|
D|---------------------------------------------|
A|0~-(pause)-2~--5~-4~--0~-(pause)-2~--5~-4~-0~|
E|---------------------------------------------|

pretty sure this is right, you can just play this straight through. the part called riff 
sounds about right but email me with any corrections. please rate.

| /  slide up
| \  slide down
| h  hammer-on
| p  pull-off
| ~  vibrato
| +  harmonic
| x  Mute note
============================================================================

            
            
Suggest correction
Creating personal tab
Creating personal tab
You can edit any tab online and save it as your Personal.

You can edit, replace or remove any tab part or add personal notes – all changes will be seen only by you.

Personal tabs can be accessed anytime from any device, even offline.
Learn more »
comments
print report bad tab
5 comments total. Showing first comments.
0 reply
jbrown725 10 Apr 21, 2008 04:00 PM

This is better than the other ones on this site. I prefer to play the whole intro on the A and D strings, and riff 2 higher on the E string, but the tab is technically correct.

0 reply
Jay Awesome 115 Jun 05, 2008 08:39 AM

Haha I tabbed out this song because I thought all the tabs on the site had "riff 2" on the A and D strings where its supposed to be mostly on A. But I must've overlooked this tab before, it's good.

+1 reply
WARNINGnimrod12 390 Mar 12, 2009 12:20 PM

perfect dude!

guest
You may want to rate the tab now too:
select rating
Wanna post a correction for this tab? Suggest correction