Oops, an error
Loading. Please wait.

Natives Tab

version 3
version 3

Whole song

Interactive

46,965 views 79 this week
4 commentsread comments
1 2 3 4 5
excellent!
x 15
add to favorites
launch autoscroll
font size
0
reset
how to read this tab
guitar tuner
Tab Pro tools
  • play this tab
  • loop segment
  • change instrument
  • show fretboard
  • metronome
×
Best way to learn
"Natives"
Autoscroll
slow
fast
+/-
esc
set tempo
stop
Difficulty
intermediate
Hello fellow Blink-182 fans this is my first tab and one of my favorite songs from their 
new album "Neighborhoods." It sounds really close so hope i you like it.
email: Chris_Singharath@yahoo.com



INTRO
Part 1

E |-------------------------------------------------------|
B |--0-0--4p0--5p0--4p0--2p0--4p0--2p0--4p0---------------|
G |-------------------------------------------------------|
D |-------------------------------------------------------|
A |-------------------------------------------------------|
E |-------------------------------------------------------|

Part 1 continued

E |-------------------------------------------------------|
B |--2p0--4p0--5p0--4p0--2p0--4p0--2p0--4p0---------------|
G |-------------------------------------------------------|
D |-------------------------------------------------------|
A |-------------------------------------------------------|
E |-------------------------------------------------------|

REPEAT EVERYTHING ABOVE 4 TIMES THEN GO TO THE BELOW SECTION

Part 2

E |-------------------------------------------------------|
B |--0-0--7p0--5p0--4p0--2p0--4p0--2p0--4p0---------------|
G |-------------------------------------------------------|
D |-------------------------------------------------------|
A |-------------------------------------------------------|
E |-------------------------------------------------------|

Part 2 continued (same as part 1 continued)

E |-------------------------------------------------------|
B |--2p0--4p0--5p0--4p0--2p0--4p0--2p0--4p0---------------|
G |-------------------------------------------------------|
D |-------------------------------------------------------|
A |-------------------------------------------------------|
E |-------------------------------------------------------|

***BIG CHANGE at one point during this "intro" riff tom changes it to start on the 7th 
fret and continue with the rest of the notes. so keep that in mind
.

Verse

E| ------------------------------------------------------------------|
B| ------------------------------------------------------------------|
G| ------------------------------------------------------------------|
D| ----6-----8-----2-------------------------------------------------|
A| ----6-----8-----2-------------------------------------------------|
E| ----4-----6-----0-------------------------------------------------|

Chorus

E| ------------------------------------------------------------------|
B| ------------------------------------------------------------------|
G| ---4-------4-------------------4----------------------------------|
D| ---4--2----4---2----6----2---4---2--------------------------------|
A| ---2--2----2---2----6----2---2---2--------------------------------|
E| -------0--------0----4----0--------0------------------------------|

Bridge

E| -------------------------------------------------------------------|
B| -------------------------------------------------------------------|
G| --4--3--6--4--------8--6--9--8-------------------------------------|
D| --x--x--x--x--------x--x--x--x-------------------------------------|
A| --2--1--4--2--------6--4--7--6-------------------------------------|
E| -------------------------------------------------------------------|
comments
print report bad tab
4 comments total. Showing first comments.
0 reply
iamjakedrake wrote on December 19 2011, 09:31 am

awesome tab. the verse also sounds good if you add:

e|----------2p0-2p0-2p0--
b|-----------------------
g|-----------------------
d|--6--8--2--------------
a|--6--8--2--------------
e|--4--6--0--------------

also i think the bridge is just a little different

e|----------------------------------------
b|----------------------------------------
g|--4-3-6-4---8-6-9-8--4-3-6-4---8-6-9-4--
d|--x-x-x-x---x-x-x-x--x-x-x-x---x-x-x-x--
a|--2-1-4-2---6-4-7-6--2-1-4-2---6-4-7-2--
e|----------------------------------------

awesome tab man, thanks for the intro i was having trouble with that, keep rocking to blink. glad they're back together

0 reply
Bl20 wrote on December 31 2011, 09:08 pm

You copied this from littleredguitar's guitar lesson of this song didn't you?

0 reply
BenjaUribe wrote on November 2 2012, 09:48 pm

Can I play the Intro Riff tapping??? Because I think is Easy...

I want to post or [tab]
guest
You may want to rate the tab now too:
select rating
Please do not post tabs as comments. Select "correction" instead!