Oops, an error
Loading. Please wait.

Neighborhoods Bass Tab

version 2
version 2

Album

3,276 views 15 this week
no commentswrite comment
1 2 3 4 5
accurate
x 4
add to favorites
launch autoscroll
font size
0
reset
guitar tuner
Tab Pro tools
  • play this tab
  • loop segment
  • change instrument
  • show fretboard
  • metronome
×
Best way to learn
"Neighborhoods"
Autoscroll
slow
fast
+/-
esc
set tempo
stop
Contributor
I have done a few tabs now, and I thought I would have a go at a whole album! I have 
played all these songs through with the tab and it sounds pretty accurate. If you have any 
corrections or suggestions please send them to me.

Please check out my youtube channel: www.youtube.com/shaundy90

_______________

1. GHOST ON THE DANCEFLOOR
Cover: http://www.youtube.com/watch?v=Qqc2Kb6JJ6s

Intro
|---------------------------------------------------------------------------|
|---------------------------------------------------------------------------|
|--22222222-44444444-22222222-99999999-77777777--99999999-77777777-99999999-|
|---------------------------------------------------------------------------|

Verse 1
|---------------------------------------|
|---------------------------------------|
|--22222222-----------------------------| x2
|-----------00000000-4444422-00000000---|

|-------------------------------------------------------|
|-------------------------------------------------------|
|--22222222-44444444-1111111111111111-99999999-77777777-| x2
|-------------------------------------------------------|
Note: (11's not 1's)

Chorus

(I'm pretty sure option A is what is really played, but option B sounds good as well and 
can you be used to change the song up a bit.)

Option A:
|----------------------------------------|
|----------------------------------------|
|--2222222222224444-------------------2~-|
|-------------------00000000-22222222----|

Option B:
|----------------------------------------|
|----------------------------------------|
|--2222222222224444-77777777-99999999-2~-|
|----------------------------------------|

- PLAY INTRO -

Verse 2
|---------------------------------------|
|---------------------------------------|
|--22222222-----------------------------| x1
|-----------00000000-4444422-00000000---|

|-------------------------------------------------------|
|-------------------------------------------------------|
|--22222222-44444444-1111111111111111-99999999-77777777-| x1
|-------------------------------------------------------|
Note: (11's not 1's)

- PLAY CHORUS -

Bridge
(Im not sure if there is any bass in the bridge, when Mark plays live he goes to the  
crowd and signs autogrpahs, but this sounds okay. If you don't like the end riff just keep 
play the 2nd fret on the A string)

|--------------------------------------------------------------|
|--------------------------------------------------------------|
|--2~---2~---2~---2~---2~--2222222222222222--------------------|
|-------------------------------------------00000000-22222222--|

- PLAY CHORUS -

_______________

2. NATIVES
Credit to: Rheaman1992

Intro
G|----------------------------------------------------------------=---------|
D|--------------------------------------------------------------------------|
A|-------------------------------------22222222-44444444--------------------|
E|-44444444-00000000-44444444-00000000-------------------44444444-00000000--|

Verse 1
G|-----------------------------------------------------|
D|-----------------------------------------------------|
A|-----------------------------------------------------| x2
E|--44444444444466660~~~~~~~-44444444444466660~~~~~~~--|

Chorus
G|--------------------------------------------------------------------------|
D|--------------------------------------------------------------------------|
A|-22222222-77777777-22222222-77777777-------------------22222222-77777777--|
E|-------------------------------------44444444-00000000--------------------|

Pre Chorus
G |---------------------------------------|
D |---------------------------------------|
A |--22222222-44444444--------------------|
E |--------------------44444444-00000000--|

- Play Verse -
- Play Chorus -

Bridge
G |----------------------------------|
D |----------------------------------|
A |---2~----2~----2~-7~-11~-7~-------|
E |------0~----0~--------------------|

- Play Chorus -

End:
G |------------------------------------------------------------|
D |------------------------------------------------------------|
A |---2222222-77777777-22222222-77777777-----------------------|
E |--------------------------------------44444444-66666666-0~--|

_______________

3. Up All Night
Cover: http://www.youtube.com/watch?v=5jlmqQwQ8Ws

Into
G|------------------------------------------------|
D|------------------------------------------------|
A|-----------------------------------555555555555-|
E|--77776666-5555555555-44444444444---------------|

G|------------------------------------------------|
D|------------------------------------------------|
A|------------------------------------------------|
E|--77776666-5555555555-44444444444-33333333333---|

Heavy Riff
G|--------------------------------|
D|--------------------------------|
A|---------777--------------------|
E|--5-4-0-------5-4-0-6-77-66-55--|

Verse Part 1
G|--------------------------------------|
D|--------------------------------------|
A|---------------------------------5~---|
E|--5~-------------0~-------------------|

Main Verse
G|---------------------------------------------|
D|---------------------------------------------|
A|--------------------------000--000--555--555-|
E|--55—555----555---555\7~---------------------|

Prechorus (11's not 1's)
G|-------------------------------------------------------------------|
D|-------------------------------------------------------------------|
A|-9999999—11111111111111---000000000-------------------5555555555---|
E|(2222222-4-4-4-4-4-4-4-)------------0000000-22222222---------------|

Chorus
G|--------------------------------------------|
D|--------------------------------------------|X3
A|---00000000000000000000000—777777—555555----|
E|--------------------------------------------|

- Play Heavy Riff
- Play Main Verse
- Play prechorus
- Play chorus
- Play heavy riff until the end

_______________

4. After Midnight
- DROP D -

Intro
G|---------------------------------------------|
D|---------------------------------------------|
A|-00-00--00-00--00-00--00-00--55-55--55-55----|
D|---------------------------------------------|

Verse
G|--------------------------------------------------------------------|
D|--------------------------------------------------------------------|
A|-0000000000000000000000000000000------------------------------------|
D|--------------------------------00000000000000000000000000000000----|

Prechorus
G|---------------------------------------------------------------------------|
D|---------------------------------------------------------------------------|
A|-(9999999999999999)-5555555555555555-00000000000000000000000000000000------|
E|--2222222222222222---------------------------------------------------------|

G|-------------------------------------------|
D|-------------------------------------------|
A|-(999999999999999)-5555555555555555--------|
E|--222222222222222--------------------------|

Chorus
G|-------------------------------------------------------------------|
D|-------------------------------------------------------------------|
A|-000000000000000000000000000000055555555555555555555555555555555---|
E|-------------------------------------------------------------------|

Bridge part 1
G|-9999999999999999-777777777777777-----------------------------------|
D|-7777777777777777-777777777777777-777777777777777777777777777777777-|
A|----------------------------------55555555555555555555555555555555--|
E|--------------------------------------------------------------------|

Bridge Part 2 (Note: I have seen some people pick this part out instead of strumming)
G|-----------------------------------|
D|-9999999999999999-777777777777777--|
A|-7777777777777777-555555555555555--|
E|-----------------------------------|

_______________

5. SNAKE CHARMER
Cover: http://www.youtube.com/watch?v=22uXDlkX7IE

Intro
|------------------------------|
|------------------------------|
|--0-0-0-0-2p0---0-0-0-0-4p0---| x3
|------------------------------|

|------------------------------|
|------------------------------|
|--0-0-0-0-2p0---0-0-----------| x1
|--------------------0-0-0-0---|

Pre-Verse (0:33) (Heavier Riff)

Play either of the following, the both sound pretty good!

Option A:
|----------------------------|
|----------------------------|
|-4-4p0----------------------| (play about 8 times)
|-------5-5-5-5-5-5-5-4-4----|

Option B (This is what I play):
|----------------------------|
|----------------------------|
|-4-4------------------------| (play about 8 times)
|-----5-5b-5-5-5-5-5-4-4-----|

Verse (No bass until 1:10 - Very end of the verse)
|------------|
|------------|
|------------|
|-0-0-0-0-0--|

Chorus (1:12)
|--------------------------------------|
|--------------------------------------|
|---------------------------5-5-5-5-5--| x2
|-5-5-5-5-4-4-4-4-2-2-2-2-2------------|

|------------------------------------------|
|------------------------------------------|
|---------11-11-11-11-9-9-9-9--5-5-5-5-5---| x1
|-5-5-5-5----------------------------------|

|--------------------------------------|
|--------------------------------------|
|---------------------------5-5-5-5-5--| x1
|-5-5-5-5-4-4-4-4-2-2-2-2-2------------|


Bridge (2:29)(This is a little bit hard to time, listen closely!)
|---------------------------------------------------------------|
|---------------------------------------------------------------|
|-----------------------------------------------5-5-5-5-5-5-5-5-| x 2
|-5-5-5-5-5-5-5-5-5-5-5-5-5-4-4-4-4-2-2-2-2-2-2-----------------|

|---------------------------------------------------------------|
|---------------------------------------------------------------|
|-----------------------------------------------5-5-5-5-7-7-7-7-| x 1
|-5-5-5-5-5-5-5-5-5-5-5-5-5-4-4-4-4-2-2-2-2-2-2-----------------|

_______________

6. HEARTS ALL GONE INTERLUDE (NO BASS)
_______________

7. HEARTS ALL GONE

Intro
G|--------|---------------------------------------|
D|--------|---------------------------------------|
A|--0~~~--|-0000-0000000000------------------(x2)-|
E|--------|-----------------1111-1111111111-------|

Verse a
G|-------------------------------------------------------------------|
D|-------------------------------------------------------------------|
A|--000000000000000000000000000000-8888888888888888888888888888888---|
E|-------------------------------------------------------------------|

Verse b (Played the last time before the chorus. 10's not 1 & 0)
G|-------------------------------------------------------------------|
D|-------------------------------------------------------------------|
A|--000000000000000000000000000000-888888888888-10101010101010101010-|
E|-------------------------------------------------------------------|

Chorus
G|--------------------------------------------------|
D|--------------------------------------------------|
A|--333333333333333-555555555555555-----------------|
E|----------------------------------1111-0000-1111--|

Bridge part 1
G|--------------------------------------------|
D|--77-577-799-91097---------1010-1012109-----|
A|------------------88-788-7------------------|
E|--------------------------------------------|

Bridge part 2
G|-----------------------------------------------------------|
D|-----------------------------------------------------------|
A|-00000000000000----------------00000000000000--------------|
E|----------------11111111111111----------------111111133331-|

- Play chorus until end -

_______________

8. WISHING WELL
Credit to: smallman
Cover: http://www.youtube.com/watch?v=coFytDh-XmE

Intro (0:09)x2
G|------------------------------------------------------|
D|------------------------------------------------------|
A|-000000088888883333333355555555-----------------------|
E|------------------------------------------------------|

Verse (0:20) x2
G¦------------------------------------------------------|
D¦------------------------------------------------------|
A¦-000000088888883333333355555555-----------------------|
E¦------------------------------------------------------|

G¦------------------------------------------------------|
D¦------------------------------------------------------|
A¦-0000000-------3333333355555555-----------------------|
E¦--------1111111---------------------------------------|

Pre-Chorus(0:40)x2
G¦------------------------------------------------------¦
D¦------------------------------------------------------¦
A¦-7~----8~----3~----5~---------------------------------¦
E¦------------------------------------------------------¦

Chorus (0:49)x2
G¦----------------------------------------------------------------------¦
D¦----------------------------------------------------------------------¦
A¦-3333333333333333------------------0000000000000000-8888888888888888--¦
E¦------------------3333333333333333------------------------------------¦

- Play Verse(1:18) x2 -

- Pre-Chorus(1:37) x2 -

- Play Chorus(1:47) x2 -

Bridge(2:05)x1
G¦----------------------------------------------------------------------¦
D¦----------------------------------------------------------------------¦
A¦-5555555555555555-8888888888888888-3333333333333333-------------------¦
E¦---------------------------------------------------3333333333333333---¦

G¦----------------------------------------------------------------------¦
D¦----------------------------------------------------------------------¦
A¦-5555555555555555------------------3333333333333333-------------------¦
E¦------------------1111111111111111------------------------------------¦

G¦------------------------------------------------------¦
D¦------------------------------------------------------¦
A¦-10101010101010101010101010101010---------------------¦
E¦------------------------------------------------------¦

- Play Prechorus(2:25) x2 -

Final Chorus(2:35)x2
G¦------------------------------------------------------¦
D¦---------55555555--------55555555--------77777777-----¦
A¦-33333333------------------------00000000-------------¦
E¦-----------------33333333-----------------------------¦

1st ending          2nd ending
G¦------------------|-----------------------------------¦
D¦---------33333333-|-----------------------------------¦
A¦------------------|-8888888888888888------------------¦
E¦-11111111---------|-----------------------------------¦

Outro(3:12)x1
G¦------------------------------------------------------¦
D¦------------------------------------------------------¦
A¦-0008883333333355555555-0001113333333355555555--------¦
E¦------------------------------------------------------¦

______________

9. KALEIDOSCOPE
- DROP D -

Intro
G|------------------------------------------------------|
D|------------------------------------------------------|
A|--2~---2~---2~---2~---2--------0-0-0-2-2-2-0-0-0--2~--|
D|------------------------0~-0-0------------------------|

Verse 1
G|------------------------------------|
D|--------5555555---------5555555-----|
A|-222222---------2222222-------------| x2
D|------------------------------------|

Prechorus
G|-------------------|
D|-77-5555-77-5555---|
A|-------------------|
D|-------------------|

Chorus
G|--------------------------------|-----|
D|--------------------------------|-----|
A|---------------------------(x2)-|--2~-|
D|-00-7777-00-7777-4444-5555------|-----|

Verse2
G|-----------------------------------|
D|-----------------------------------|
A|-222222--------2222222-------------| x4
D|-------555555----------555555------|

Verse 3
G|-------------------|
D|-------------------|
A|-------------------|
D|-0~--7~--9~--9--7~-|

- Play Prechorus -
- Play Chorus -

BRIDGE

G |------------|-----------------------------------------|------|
D |------------|-----------------------------------------|------|
A |------------|-------------------------------------(x2)|------|
D |--0~~~--0~~~|--0000000-55555555-00000000-22222222-----|--0~~-|

- Play Chorus -
_______________

10. THIS IS HOME


Intro
G|-------------------------------------------------------------|
D|-------------------------------------------------------------|
A|--00000000-------5555--0000000------5555--99999999-77777777--| x1
E|-----------2222----------------2222--------------------------|

Verse
G|-------------------------------------|
D|-------------------------------------|
A|-000000000000000--5555555555555555---| x2
E|-------------------------------------|

Chorus
G|-----------------------------------------------------------------|
D|-----------------------------------------------------------------|
A|-55555555-00000000-99999999-22224444-55555555-00000000-77777777--| x1
E|-----------------------------------------------------------------|

Preverse
G|--------------------------------------------|
D|--------------------------------------------|
A|--00000000-------5555--0000000------5555----| x1
E|-----------2222----------------2222---------|

- Play Verse x2 -
- Play Chorus x2 - 

Bridge part 1
G|---7----6----4----2---|
D|-77-7-44-4-22-2-00-0--|
A|----------------------| x4
E|----------------------|

Bridge part 2
G|-7777--6666-4444-2222--|
D|-7777--4444-2222-0000--|
A|-----------------------| x4
E|-----------------------|

- Play Chorus x2 - 

End on A|-0~--|	


_______________

11. MH 4.18.2011

Intro (Optional mute note on the '0' every 2nd time)
G|-------------------------------------|--------------|
D|-------------------------------------|--------------|
A|--00000000000000-777777-999999-(x4)--|--7--7--7--7--|
E|-------------------------------------|--------------|

Verse
G|------------------------------|
D|------------------------------|
A|--7777777777777777-000000-----|
E|------------------------------|

Prechorus
G|-----------------------------------------|
D|-----------------------------------------|
A|-22222224-000000000--22222224-0000-------|
E|-----------------------------------4444--|

CHORUS = SAME AS INTRO

Bridge
G|-------------------------------------------|-----------------|
D|-------------------------------------------|-----------------|
A|-------------------------------------(x2)--|-----------------|
E|-55555555-44444444-55555555-99997777-------|---555555555555--|

- Play Chorus -

_______________

12. LOVE IS DANGEROUS

Intro/Verse
G|----------------------------------------|
D|----------------------------------------| x2 (Intro)
A|--22222222-55555555---------------------| x4 (Verse)
E|--------------------33333333-33333333---|

Chorus
G |---------------------------------------|
D |---------------------------------------|
A |--22222222-00000000--------------------| x1
E |--------------------33333333-3333333---|

G |---------------------------------------|
D |---------------------------------------|
A |--22222222-00000000--------------------| x1
E |--------------------3~-----------------|

- Play Verse x6 -

2nd Chorus
G|---------------------------------------|
D|---------------------------------------|
A|--22222222-00000000--------------------| x2
E|--------------------33333333-3333333---|

G|-------------------------------------------------------------------|
D|-------------------------------------------------------------------|
A|--22222222-00000000-10-10-10-10-10-10-10-10-10-10-10-10-10-10-10---| x1
E|-------------------------------------------------------------------|

G|---------------------------------------|
D|---------------------------------------|
A|--22222222-00000000--------------------| x1
E|--------------------33333333-3333333---|

Bridge
G|----------------------------------------------------|
D|----------------------------------------------------|
A|--5~~~---5555555555555-0000-------------------------|
E|----------------------------33333333-33333333-------|

G|---------------------------------------------|
D|---------------------------------------------|
A|--5555555555555-0000-------------------------|
E|---------------------00000000-33333333-------|

- Play 2nd Chorus x1 -


_______________

13. FIGHTING THE GRAVITY

Intro
  (0:08)
G|----9--------9---------2---------------|
D|--7---7777-6---66666-0---0000000000----| x4
A|---------------------------------------|
E|---------------------------------------|

Intro Part 2
 (0:33)          (0:46)                                        (1:18)
G|--------------|--------------------------------------------|-------------|
D|--------------|--------------------------------------------|-------------|
A|--------------|--------------------------------------------|-------------|
E|-0~-00000-etc-|--3333333333-000000000-333333333-000000000--|-0000000-etc-|

Verse 
   (1:25)
G|---------------------------------------------------------------------|
D|---------------------------------------------------------------------|
A|---------------------------(7777777)---------------------------------|
E|--33333333-5555555-00000000-00000000---------------------------------|

Chorus
 (1:50)                                (2:16)
G|-----------------------------------|-------------------------------|
D|---------------------------(77777)-|-------------------------------|
A|-3333333333------0000000000000000--|-------------------------------|
E|------------0000-------------------|-0000000000000000~-------------|

Preverse (Listen closely for the sticato notes) 
  (2:20)
G|----------------------|
D|----------------------|
A|----------------------|
E|--333-333-333-333-----|

Verse
 (2:26)
G|---------------------------------------------------------------------|
D|---------------------------------------------------------------------|
A|---------------------------(7777777)---------------------------------|
E|--33333333-5555555-00000000-00000000---------------------------------|

Chorus
 (2:38)                                (3:04)
G|-----------------------------------|-------------------------------|
D|---------------------------(77777)-|-------------------------------|
A|-3333333333------0000000000000000--|-------------------------------|
E|------------0000-------------------|-0000000000000000~-------------|

Outro (until end)
  (3:14)
G|---------------------------------------------|
D|---------------------------------------------|
A|---------------------------------------------|
E|--3333333333-000000000-333333333-000000000~--|

_______________

14. EVEN IF SHE FALLS

Intro
G|---------------------------------------|
D|---------------------------------------|
A|-------------------55555555-44444444---|  x2
E|-22222222-33333333---------------------|

Verse
G|-------------------------------------------------------|
D|-------------------------------------------------------|
A|-5555555555555555--------------------------------------|  x1
E|------------------3333333333333333-77777777-55555555---|

1st Chorus
G|---------------------------------------|
D|---------------------------------------|
A|-55555555-00000000-22222222-00000000---|  x2
E|---------------------------------------|

- Play Intro x2-
- Play Verse x1-

2nd Chorus
G|---------------------------------------|
D|---------------------------------------|
A|-55555555-00000000-22222222-00000000---|  x2
E|---------------------------------------|

G|---------------------------------------|
D|---------------------------------------|
A|-55555555------------------------------|  x1
E|----------00000000-22222222-33333333---|

G|---------------------------------------|
D|---------------------------------------|
A|-55555555-00000000-22222222-00000000---|  x1
E|---------------------------------------|

Bridge
G|----------------------------------------------------------------------|
D|----------------------------------------------------------------------|
A|-5555555---------------------------55555555-77777777-99999999-10(x8)--|  x1
E|---------00000000-22222222-3333333------------------------------------|

G|-------|
D|-7~----|
A|-5~----| x2
E|-------|

- Play 1st Chorus -

End on: A|-5~--|


_______________

That's it! Hope this helps, and feel free to send in corrections/suggestions!

www.youtube.com/shaundy90
comments
print report bad tab
I want to post or [tab]
guest
You may want to rate the tab now too:
select rating
Please do not post tabs as comments. Select "correction" instead!