Oops, an error
Loading. Please wait.
We have an official No Future tab made by UG professional guitarists. Check out the tab »
×
5,779 views 27 this week
no commentswrite comment
1 2 3 4 5
x 16
add to favorites
×
Save as Personal and add changes to this tab that will be seen only by you. Learn more ›
×
You can save this tab as Personal to edit and correct it or add notes. All changes will be seen only by you. Learn more »
launch autoscroll
font size
0
reset
guitar tuner
edit
Autoscroll
slow
fast
+/-
esc
set tempo
stop
Author
Tabbed by: JimBlenderBR


r = Let it Ring


Enjoy!


[Intro]

G|-----------------|-----------------|-----------------|-----------------|
D|-----------------|-----------------|-----------------|-----------------|
A|-3-3-3-----------|-Rest------------|-Rest------------|-Rest------------|  x2
E|-----------------|-----------------|-----------------|-----------------|


[VERSE 1]

(She said...)

G|-----------------|-----------------|-----------------|-----------------|
D|---5-------------|---5-------------|---3-------------|-----------------|
A|-3---------------|-----------------|-----------------|-----------------| 
E|-----------------|-3---------------|-1---------------|-1---------------|

(The next day...)

G|-----------------|-----------------|-----------------|-----------------|
D|-----------------|-----------------|-----------------|-----------------|
A|---7-------------|---5-------------|---3-------------|-----------------| 
E|-5---------------|-3---------------|-1---------------|-1---------------|


[PRE-CHORUS 1]

(Every day that you waste...)

G|-----------------|-----------------|-----------------|-----------------|
D|-----------------|-----------------|-----------------|-----------------|
A|---7-------------|---5-------------|---3-------------|-----------------| 
E|-5---------------|-3---------------|-1---------------|-1---------------|

(It's a permanent state...)

G|-----------------|-----------------|-----------------|-----------------|
D|-----------------|-----------------|-----------------|-----------------|
A|---7-------------|---5-------------|-----------------|-----------------| 
E|-5---------------|-3---------------|-1---------------|-Rest------------|


[CHORUS 1]

(You don't know...)

G|-----------------------|---------------------|--------------------------|----------------------|
D|-----------------------|---------------------|--------------------------|----------------------|
A|-8/3--3-3--3-3--3-3--2-|-0--0-0--0-0--0-0----|-------------2-2-2-3-3-3--|----------------------|
E|-----------------------|-------------------3-|-1-1-1-1-1-1--------------|-5-5-5-5/-15-15-15-15-|

(Let the music...)

G|---------------------|---------------------|--------------------------|-----------------------|
D|---------------------|---------------------|--------------------------|-----------------------|
A|-3--3-3--3-3--3-3--2-|-0--0-0--0-0--0-0----|-------------2-2-2-3-3-3--|-----------------------|  
E|---------------------|-------------------3-|-1-1-1-1-1-1--------------|-5-5-5-5-3-3-/15-15-15-|

G|-----------------|-------------------------|
D|-----------------|-------------------------|
A|-----------------|-------------------------|
E|-1-1-1-1-1-1-1-1/|-13-13-13-13-13-13-13-13-|


[VERSE 2]

(She said...)

G|-----------------|-----------------|-----------------|-----------------|
D|-----5-----5---5-|-----------------|-----------------|-----------------|
A|-3-3---3-3---3---|-----5-----5---5-|-----------------|-----------------| 
E|-----------------|-3-3---3-3---3---|-1-1-1-1-1-1-1-1-|-1-1-1-1-1-1-1-1-|

(Someday...)

G|-------------------------|-------------------------|--------------------|-------------------|
D|-14-------14-------14----|-12-------12-------12----|-10-----10-----10---|-------------------|
A|----12-12----12-12----12-|----10-10----10-10----10-|----8-8----8-8----8-|-----------8-8-----| 
E|-------------------------|-------------------------|--------------------|-8-8-10-10-----8-8-|


[PRE-CHORUS 2]

(Every night that you fight...)

G|-----------------|-----------------|-----------------|-----------------|
D|-----------------|-----------------|-----------------|-----------------|
A|-----------------|-----------------|-----------------|-----------------|  
E|-5-5-5-5-5-5-5-5-|-3-3-3-3-3-3-3-3-|-1-1-1-1-1-1-1-1-|-1-1-1-1-1-1-1-1-|

(Wide awake from the dream...)

G|-----------------|-----------------|-----------------|-----------------|
D|-----------------|-----------------|-----------------|-----------------|
A|-----------------|-----------------|-----------------|-----------------|  
E|-5-5-5-5-5-5-5-5-|-7-7-7-7-7-7-7-7-|-1-1-1-1-1-1-1-1-|-1-1-1-1-1-1-1-1-|


[CHORUS 2]

(You don't know...)

G|---------------------|---------------------|--------------------------|----------------------|
D|---------------------|---------------------|--------------------------|----------------------|
A|-3--3-3--3-3--3-3--2-|-0--0-0--0-0--0-0----|-------------2-2-2-3-3-3--|----------------------|
E|---------------------|-------------------3-|-1-1-1-1-1-1--------------|-5-5-5-5/-15-15-15-15-|

(Let the music...)

G|---------------------|---------------------|--------------------------|----------------------|
D|---------------------|---------------------|--------------------------|----------------------|
A|-3--3-3--3-3--3-3--2-|-0--0-0--0-0--0-0----|-------------2-2-2-3-3-3--|----------------------|  
E|---------------------|-------------------3-|-1-1-1-1-1-1--------------|-5-5-5-5/-15-15-15-15-|

(Na na na...)

G|-----------------------------|-----------------------------|-------------------------|---------------------|
D|-----------------------------|-----------------------------|-------------------------|---------------------|
A|-15--15-15--15-15--15-15--14-|-12--12-12--12-12--12-12--10-|-8-8-8-8-8-8-2-2-2-3-3-3-|---------------------|
E|-----------------------------|-----------------------------|-------------------------|-5-5-5-5-3-3/15-15-15|

(Na na na...)

G|---------------------|---------------------|-------------------------|-----------------------|
D|---------------------|---------------------|-------------------------|-----------------------|
A|-3--2-3--2-3--2-3--2-|---------------------|-------------2-2-2-3-3-3-|-----------------------| 
E|---------------------|-5--3-5--3-5--3-5--3-|-1-1-1-1-1-1-------------|-5-5-5-5-3-3/-15-15-15-|


[BRIDGE]

G|-----------------|-----------------|-----------------|-----------------|
D|-----------------|-----------------|-----------------|-----------------|
A|-----------------|-----------------|-----------------|-----------------|  
E|-Rest------------|-Rest------------|-Rest------------|-Rest------------|

G|-------------------------|-------------------------|-------------------------|-------------------------|
D|-------------------------|-------------------------|-------------------------|-------------------------|
A|-12-12-12-12-12-12-12-12-|-14-14-14-14-15-15-14-14-|-------------------------|-------------15-15-14-14-|  
E|-------------------------|-------------------------|-13-13-13-13-13-13-13-13-|-15-15-15-15-------------|

(Where did she go...)

G|------------|------------|------------|------------|
D|------------|------------|------------|------------|
A|-0--0--0--0-|-0--0--0--0-|------------|-------3--2-|  x2
E|------------|------------|-1--1--1--1-|-3--3-------|

(Where did she go...)

G|-----------------|-----------------|-----------------|-----------------|
D|-----------------|-----------------|-----------------|-5-5-5-5---------|
A|-0-0-0-0-0-0-0-0-|-2-2-2-2-3-3-2-2-|-----------------|---------3-3-2-2-| 
E|-----------------|-----------------|-1-1-1-1-1-1-1-1-|-----------------|

(Where did she go...)

G|-------------------------|-------------------------|-------------------------|-------------------------|
D|-------------------------|-------------------------|-------------------------|-------------------------|
A|-12-12-12-12-12-12-12-12-|-14-14-14-14-15-15-14-14-|-------------------------|-------------15-15-14-14-|  
E|-------------------------|-------------------------|-13-13-13-13-13-13-13-13-|-15-15-15-15-------------|


[CHORUS 3]

(You don't know...)

G|-----------------|-----------------|------------------|---------------------------------|
D|-----------------|-----------------|------------------|---------------------------------|
A|-----------------|-----------------|------------------|---------------------------------|  
E|-Rest------------|-Rest------------|-1--1-1--1-1--1-1-|-5-5-5-5-5-5-5-5-3-3-3-3-3-3-3-3-|

(Let the music...)

G|-----------------------|---------------------|--------------------------|----------------------|
D|-----------------------|---------------------|--------------------------|----------------------|
A|-8/3--3-3--3-3--3-3--2-|-0--0-0--0-0--0-0----|-------------2-2-2-3-3-3--|----------------------|  
E|-----------------------|-------------------3-|-1-1-1-1-1-1--------------|-5-5-5-5-/15-15-15-15-|

(Na na na...)

G|-----------------------------|-----------------------------|-------------------------|---------------------|
D|-----------------------------|-----------------------------|-------------------------|---------------------|
A|-15--15-15--15-15--15-15--14-|-12--12-12--12-12--12-12--10-|-8-8-8-8-8-8-2-2-2-3-3-3-|---------------------|
E|-----------------------------|-----------------------------|-------------------------|-5-5-5-5-3-3/15-15-15|

(Na na na...)

G|---------------------|---------------------|--------------------------|-----------------------|
D|---------------------|---------------------|--------------------------|-----------------------|
A|-3--2-3--2-3--2-3--2-|---------------------|-------------2-2-2-3-3-3--|-----------------------| 
E|---------------------|-5--3-5--3-5--3-5--3-|-1-1-1-1-1-1--------------|-5-5-5-5-3-3/-15-15-15-|


[END NOTE]

G|----|
D|----|
A|----|
E|-1r-|

__________
Hope you liked!

Tabbed by: JimBlenderBR

            
            
Suggest correction
Creating personal tab
Creating personal tab
You can edit any tab online and save it as your Personal.

You can edit, replace or remove any tab part or add personal notes – all changes will be seen only by you.

Personal tabs can be accessed anytime from any device, even offline.
Learn more »
comments
print report bad tab
guest
You may want to rate the tab now too:
select rating
Wanna post a correction for this tab? Suggest correction