Oops, an error
Loading. Please wait.
We have an official No Future tab made by UG professional guitarists. Check out the tab »
×

No Future tab

version 1
version 1

Whole song

  • My tab is right unlike many others out their who do a half finished job.

Interactive

10,327 views 39 this week
3 commentsread comments
1 2 3 4 5
x 10
add to favorites
×
Save as Personal and add changes to this tab that will be seen only by you. Learn more ›
×
You can save this tab as Personal to edit and correct it or add notes. All changes will be seen only by you. Learn more »
launch autoscroll
font size
0
reset
how to read this tab
guitar tuner
edit
Autoscroll
slow
fast
+/-
esc
set tempo
stop
Author
Difficulty
About this tab version
My tab is right unlike many others out their who do a half finished job. Was this info helpful? Yes No
Here's one of Blink 182's new songs called No Future. This is the 7th 
track in there new album California and I hope like my tab and get something out 
of it. 


[Intro]

e|---------------------------------------------------------------------------|
B|---------------------------------------------------------------------------|
G|---------------------------------------------------------------------------|
D|------5----5----5----5----5----5----5----5---------------------------------| x2
A|---3-3--3-3----------------------------------------------------------------|
E|-------------3-3--3-3--1-1--1-1--1-1--1-1----------------------------------|


[Verse]

Guitar 1                                               On last time play this:
e|---------------------------------------------|      |---------------------------|
B|---------------------------------------------|      |---------------------------|
G|---------------------------------------------|      |---------------------------|
D|------5----5----5----5----5----5----5----5---| x4   |------5----5----5----5-----|
A|---3-3--3-3----------------------------------|      |---3-3--3-3----------------|
E|-------------3-3--3-3--1-1--1-1--1-1--1-1----|      |-------------3-3--3-3--1---|

Guitar 2 

Fade in with sustain or feed back pedal. Listening to the song will help.
e|----------------------------------|                                         
B|---20---------------18-------17---|                                              
G|----------------------------------|                                         
D|----------------------------------| x2                                         
A|----------------------------------|                                                
E|----------------------------------|                                           

e|----------------------------------|                                         
B|---20-------18---17---------------|                                              
G|----------------------------------|                                         
D|----------------------------------| x2                                         
A|----------------------------------|                                                
E|----------------------------------|


[Chorus]
                                                                                     
e|--------------------------------------------------------------------------------------------------------|
B|--------------------------------------------------------------------------------------------------------|
G|--------5-x-5-5-x-5-5-x-5-5-----------------------x-x-10-10-10-10-10-10-10-10-10-10-10-10-10-10-10-10---|
D|--------5-x-5-5-x-5-5-x-5-5-5-7-x-7-7-x-7-7-x-7-7-x-x-10-10-10-10-10-10-10-10-10-10-10-10-10-10-10-10---|
A|---7\---3-x-3-3-x-3-3-x-3-3-5-7-x-7-7-x-7-7-x-7-7-x-x-8--8--8--8--8--8--8--8--8--8--8--8--8--8--8--8----|
E|----------------------------3-5-x-5-5-x-5-5-x-5-5-------------------------------------------------------|

e|----------------------------------------------------------------------|
B|----------------------------------------------------------------------|
G|---7--7--7--7--5--5--5--5---------------------------------------------|
D|---7--7--7--7--5--5--5--5---------------------------------------------|
A|---5--5--5--5--3--3--3--3---------------------------------------------|
E|----------------------------------------------------------------------|

Repeat chorus but on the second time don't do the slide at the start.    

[End to chorus]

e|---------------------------------------------|
B|---------------------------------------------|
G|---------------------------------------------|
D|---3--3-3-3-3-3-3----------------------------| 
A|---3--3-3-3-3-3-3--Pick-slide----------------|
E|---1--1-1-1-1-1-1----------------------------|
       |P.M - - - -|


[Verse 2]

e|------------------------------------------------------------------------------------------|
B|------------------------------------------------------------------------------------------|
G|------------------------------------------------------------------------------------------|
D|---5-x-5-5----5-x-5-5-------------------------------------------------------2-0-2-0-2-0---| 
A|---3-------3---------2-3-x-3-3--x-3----3-3-3--7-x-7-7-x-5-x-5-5-x-3-x-3-3-x---------------|
E|------------------------------------------------------------------------------------------|

e|---------------------------------------------------------------------------------------|
B|---------------------------------------------------------------------------------------|
G|------------------------------------------10-x-10-x-10-x-10-x-10-x-10-x-10--10-10-10---|
D|---5-5-5--7-x-7-x-7-x-7-x-5-x-5-x-5-x-5-x-10-x-10-x-10-x-10-x-10-x-10-x-10--10-10-10---| x2 
A|---5-5-5--7-x-7-x-7-x-7-x-5-x-5-x-5-x-5-x-8--x-8--x-8--x-8--x-8--x-8--x-8---8--8--8----|
E|---3-3-3--5-x-5-x-5-x-5-x-3-x-3-x-3-x-3-x----------------------------------------------|
    |P.M -|

[Chorus 2]
 
Repeat chorus                                                                                                
e|---------------------------------------------------------------------------------------------------|
B|---------------------------------------------------------------------------------------------------|
G|---5-x-5-5-x-5-5-x-5-5-----------------------x-x-10-10-10-10-10-10-10-10-10-10-10-10-10-10-10-10---|
D|---5-x-5-5-x-5-5-x-5-5-5-7-x-7-7-x-7-7-x-7-7-x-x-10-10-10-10-10-10-10-10-10-10-10-10-10-10-10-10---|
A|---3-x-3-3-x-3-3-x-3-3-5-7-x-7-7-x-7-7-x-7-7-x-x-8--8--8--8--8--8--8--8--8--8--8--8--8--8--8--8----|
E|-----------------------3-5-x-5-5-x-5-5-x-5-5-------------------------------------------------------|

e|----------------------------------------------------------------------|
B|----------------------------------------------------------------------|
G|---7--7--7--7--5--5--5--5---------------------------------------------|
D|---7--7--7--7--5--5--5--5---------------------------------------------|
A|---5--5--5--5--3--3--3--3---------------------------------------------|
E|----------------------------------------------------------------------|


[Bridge]

Repeat the Na na na na na part
e|-------------------------------------------------------------------|
B|-------------------------------------------------------------------|
G|---5-5-5-5-5-5-5-5-5-5-5-5-5---------------------------------------|
D|---5-5-5-5-5-5-5-5-5-5-5-5-5-5-5-7-7-7-7-7-7-7-7-7-7-7-7-7-7-7-7---|
A|---3-3-3-3-3-3-3-3-3-3-3-3-3-5-5-7-7-7-7-7-7-7-7-7-7-7-7-7-7-7-7---|
E|-----------------------------3-3-5-5-5-5-5-5-5-5-5-5-5-5-5-5-5-5---|

e|-------------------------------------------------------------------------------------|
B|---10-10-10-10-10-10-10-10-10-10-10-10-10-10-10-10-----------------------------------|
G|---10-10-10-10-10-10-10-10-10-10-10-10-10-10-10-10-7-7-7-7-7-7-7-7-5-5-5-5-5-5-5-5---|
D|---8--8--8--8--8--8--8--8--8--8--8--8--8--8--8--8--7-7-7-7-7-7-7-7-5-5-5-5-5-5-5-5---|
A|---------------------------------------------------5-5-5-5-5-5-5-5-3-3-3-3-3-3-3-3---|


[Bridge 2]

Guitar 1
e|---------------------------------------------------------------------------|
B|---------------------------------------------------------------------------|
G|---------------------------------------------------------------------------|
D|---7-7-7-7-7-7-7-7-7-7-7-7-7-7-7-7-3-3-3-3-3-3-3-3-5-5-5-5-5-5-5-5---------| x2
A|---7-7-7-7-7-7-7-7-7-7-7-7-7-7-7-7-3-3-3-3-3-3-3-3-5-5-5-5-5-5-5-5---------|
E|---5-5-5-5-5-5-5-5-5-5-5-5-5-5-5-5-1-1-1-1-1-1-1-1-3-3-3-3-3-3-3-3---------|
    |P.M - - - - - - - - - - - - - - - - - - - - - - - - - - - - - -|

Guitar 2
e|--------------------------------------------------------------------------------------------------|
B|--------------------------------------------------------------------------------------------------|
G|-----------------------------------------------------------------------------7-7------------------|
D|---10-10-10-10-10-10-10-10-10-10-9-9-10-10-12-12-10-10-10-10-10-10-10-10-9-9-----10-10-9-9-10-10--| x2
A|--------------------------------------------------------------------------------------------------|
E|--------------------------------------------------------------------------------------------------|
    |P.M - - - - - -- - - - - - - - - - - - - - - - - - - - - - - - - - - - - - - - - - - - - - - |

Guitar 3

Play each note staccato 
e|-----------------------------------------------------------------------------------------------------|
B|---20-20-20-20-20-20-20-20-20-20-20-20-20-20-20-20-18-18-18-18-18-18-18-18-17-17-17-17-17-17-17-17---|
G|-----------------------------------------------------------------------------------------------------|
D|-----------------------------------------------------------------------------------------------------|
A|-----------------------------------------------------------------------------------------------------|
E|-----------------------------------------------------------------------------------------------------|


[Bridge 3]

Where did she go....
e|----------------------------------------------------|
B|----------------------------------------------------|
G|----------------------------------------------------|
D|---7--7--7--7--7--7--7--7--3--3--3--3--5--5--5--5---| x2 
A|---7--7--7--7--7--7--7--7--3--3--3--3--5--5--5--5---|
E|---5--5--5--5--5--5--5--5--1--1--1--1--3--3--3--3---|

e|-----------------------------------------------------------------------------|
B|-----------------------------------------------------------------------------|
G|---9-9-9-9-9-9-9-9-9-9-9-9-9-9-9-9-12-12-12-12-12-12-12-12-7-7-7-7-5-5-4-4---|
D|---7-7-7-7-7-7-7-7-7-7-7-7-7-7-7-7-10-10-10-10-10-10-10-10-5-5-5-5-5-5-5-5---| x2 
A|---7-7-7-7-7-7-7-7-7-7-7-7-7-7-7-7-10-10-10-10-10-10-10-10-5-5-5-5-----------|
E|-----------------------------------------------------------------------------|

[Bridge 4]

You don't know a thing about it.....
e|---------------------------------------------------------------------------|
B|---------------------------------------------------------------------------|
G|---------------------------------------------------------------------------|
D|---3--3-3--3-3--3-3--3-7-7-7-7-7-7-7-7-5-5-5-5-5-5-5-5---------------------| 
A|---3--3-3--3-3--3-3--3-7-7-7-7-7-7-7-7-5-5-5-5-5-5-5-5---------------------|
E|---1--1-1--1-1--1-1--1-5-5-5-5-5-5-5-5-3-3-3-3-3-3-3-3---------------------|
    |P.M - - - - - - - - - - - - - - - - - - - - - - - -|

[Chorus 3]
                                                                                               
e|---------------------------------------------------------------------------------------------------|
B|---------------------------------------------------------------------------------------------------|
G|---5-x-5-5-x-5-5-x-5-5-----------------------x-x-10-10-10-10-10-10-10-10-10-10-10-10-10-10-10-10---|
D|---5-x-5-5-x-5-5-x-5-5-5-7-x-7-7-x-7-7-x-7-7-x-x-10-10-10-10-10-10-10-10-10-10-10-10-10-10-10-10---|
A|---3-x-3-3-x-3-3-x-3-3-5-7-x-7-7-x-7-7-x-7-7-x-x-8--8--8--8--8--8--8--8--8--8--8--8--8--8--8--8----|
E|-----------------------3-5-x-5-5-x-5-5-x-5-5-------------------------------------------------------|

e|----------------------------------------------------------------------|
B|----------------------------------------------------------------------|
G|---7--7--7--7--5--5--5--5---------------------------------------------|
D|---7--7--7--7--5--5--5--5---------------------------------------------|
A|---5--5--5--5--3--3--3--3---------------------------------------------|

[Outro]

Repeat the Na na na na na part
e|-------------------------------------------------------------------|
B|-------------------------------------------------------------------|
G|---5-5-5-5-5-5-5-5-5-5-5-5-5---------------------------------------|
D|---5-5-5-5-5-5-5-5-5-5-5-5-5-5-5-7-7-7-7-7-7-7-7-7-7-7-7-7-7-7-7---|
A|---3-3-3-3-3-3-3-3-3-3-3-3-3-5-5-7-7-7-7-7-7-7-7-7-7-7-7-7-7-7-7---|
E|-----------------------------3-3-5-5-5-5-5-5-5-5-5-5-5-5-5-5-5-5---|

e|-----------------------------------------------------------------------------------------|
B|---10-10-10-10-10-10-10-10-10-10-10-10-10-10-10-10---------------------------------------|
G|---10-10-10-10-10-10-10-10-10-10-10-10-10-10-10-10-7-7-7-7-7-7-7-7-5-5-5-5-5-5-5-5---3---|
D|---8--8--8--8--8--8--8--8--8--8--8--8--8--8--8--8--7-7-7-7-7-7-7-7-5-5-5-5-5-5-5-5---3---|
A|---------------------------------------------------5-5-5-5-5-5-5-5-3-3-3-3-3-3-3-3---1---|


********************************

| x   Dead note
| \   Slide down 
| PM  Palm mute

********************************

            
            
Suggest correction
Creating personal tab
Creating personal tab
You can edit any tab online and save it as your Personal.

You can edit, replace or remove any tab part or add personal notes – all changes will be seen only by you.

Personal tabs can be accessed anytime from any device, even offline.
Learn more »
comments
print report bad tab
3 comments total.
+1 reply
Drumfreak999 315 Sep 06, 2016 01:08 AM

Great tab. Helped me master the harder parts! \m/

0 reply
fabian.antoniosanchez 10 Dec 14, 2016 06:34 PM

e|---------------------------------------------------------------------------|
B|---------------------------------------------------------------------------|
G|------0----0----0----0----0----0----0----0---------------------------------|
D|---------------------------------------------------------------------------| x2
A|---3-3--3-3----------------------------------------------------------------|
E|-------------3-3--3-3--1-1--1-1--1-1--1-1----------------------------------|

I think its this way, since its easier, and let's admit it, blink isnt the type of making hard songs. To me sounds the same but easier.

0 reply
mbrelin 10 Sep 02, 2017 09:04 AM

Good tab, but i noticed that some lines vere missing the low E string, so it can be a bit confusing in some instances

guest
You may want to rate the tab now too:
select rating
Wanna post a correction for this tab? Suggest correction