Oops, an error
Loading. Please wait.
We have an official Not Now tab made by UG professional guitarists. Check out the tab »
×
148,202 views 180 this week
61 commentsread comments
1 2 3 4 5
x 86
add to favorites
×
Save as Personal and add changes to this tab that will be seen only by you. Learn more ›
×
You can save this tab as Personal to edit and correct it or add notes. All changes will be seen only by you. Learn more »
launch autoscroll
font size
0
reset
how to read this tab
guitar tuner
edit
Autoscroll
slow
fast
+/-
esc
set tempo
stop
Author
Unregistered
Blink 182 - Not Now

Standard Tuning
/ = slide

[Intro]
e|----------------------------------------------------|
b|----------------------------------------------------|
g|--11-11-11-11-11/-7-7-7-7--7-7/9-9/11-11/7--9/11----|
d|--x--x--x--x--x-/-x-x-x-x--x-x/x-x/x--x-/x--x/x-----|
a|--9--9--9--9--9-/-5-5-5-5--5-5/7-7/9--9-/5--7/9-----|
e|----------------------------------------------------|

[Riff 1]
e|-----------------------------------------------------||
b|-----------------------------------------------------||
g|--4-4-7----------------------------------------------||
d|--4-4-7-7-7-7-7-7-5-5-5-5-5-4-4-4-4-4----------------||
a|--2-2-5-7-7-7-7-7-5-5-5-5-5-5-5-5-5-5----------------||
e|--------5-5-5-5-5-3-3-3-3-3-2-2-2-2-2----------------||

[Verse]
e|----------------------------------------||
b|----------------------------------------||
g|--7~--9~--11~-12~-----------------------||
d|--7~--9~--12~-12~-----------------------||
a|--5~--7~--9~~-10~-----------------------||
e|----------------------------------------||

[Pre-Chorus]
e|------------------------------------------------------------------------------||
b|------------------------------------------------------------------------------||
g|--7-7-7-7-7-7-7-7-7--9-9-9-9-9-9-9-9-9----------------------------------------||
d|--7-7-7-7-7-7-7-7-7--9-9-9-9-9-9-9-9-9--4-4-4-4-4-4-4-4-4--5-5-5-5-5-5-5-5-5--||
a|--5-5-5-5-5-5-5-5-5--7-7-7-7-7-7-7-7-7--5-5-5-5-5-5-5-5-5--5-5-5-5-5-5-5-5-5--||
e|----------------------------------------2-2-2-2-2-2-2-2-2--3-3-3-3-3-3-3-3-3--||
pm  . . . . . . . .    . . . . . . . .    . . . . . . . .    . . . . . . . .

[Chorus 1]
e|---------------------------------------------------------------||
b|---------------------------------------------------------------||
g|--7-7-7-7-7-7-7-7-7-7-7-7-7-7-7-7-7-7-7-7-7-7-7-7-7-7-7--------||
d|--x-x-x-x-x-x-x-x-x-x-x-x-x-x-x-0-0-0-0-0-0-0-0-0-0-0-0-5------||
a|--5-5-5-5-5-5-5-5-4-4-4-4-4-4-4-x-x-x-x-x-x-x-x-x-x-x-x-5------||
e|--------------------------------7-7-7-7-7-7-7-5-5-5-5-5-3------||

[Verse]
e|----------------------------------------||
b|----------------------------------------||
g|--7~--9~--11~-12~-----------------------||
d|--7~--9~--12~-12~-----------------------||
a|--5~--7~--9~~-10~-----------------------||
e|----------------------------------------||

[Chorus]                                                               x2
e|---------------------------------------------------------------------||
b|---------------------------------------------------------------------||
g|--7-7-7-7-7-7-7-7-7-7-7-7-7-7-7-7-7-7-7-7-7-7-7-7-7-7-7-7-7-7-7-7-7--||
d|--x-x-x-x-x-x-x-x-x-x-x-x-x-x-x-0-0-0-0-0-0-0-0-0-0-0-0-0-0-0-0-0-0--||
a|--5-5-5-5-5-5-5-5-4-4-4-4-4-4-4-x-x-x-x-x-x-x-x-x-x-x-x-x-x-x-x-x-x--||
e|--------------------------------7-7-7-7-7-7-7-5-5-5-5-5-3-3-3-3-3-3--||

[Bridge]
e|--------------------------------------------||
b|--------------------------------------------||
g|--111111111-/-7-7-7-7--7-7/99/1111/7--9/11--||
d|--x-x-x-x-x-/-x-x-x-x--x-x/xx/x-x-/x--x/x---||
a|--9-9-9-9-9-/-5-5-5-5--5-5/77/9-9-/5--7/9---||
e|--------------------------------------------||

[Chorus]                                                               x4
e|---------------------------------------------------------------------||
b|---------------------------------------------------------------------||
g|--7-7-7-7-7-7-7-7-7-7-7-7-7-7-7-7-7-7-7-7-7-7-7-7-7-7-7--------------||
d|--x-x-x-x-x-x-x-x-x-x-x-x-x-x-x-0-0-0-0-0-0-0-0-0-0-0-0-5-5-5-5-5-5--||
a|--5-5-5-5-5-5-5-5-4-4-4-4-4-4-4-x-x-x-x-x-x-x-x-x-x-x-x-5-5-5-5-5-5--||
e|--------------------------------7-7-7-7-7-7-7-5-5-5-5-5-3-3-3-3-3-3--||

[Riff 1]
e|-----------------------------------------------------||
b|-----------------------------------------------------||
g|--4-4-7----------------------------------------------||
d|--4-4-7-7-7-7-7-7-5-5-5-5-5-4-4-4-4-4----------------||
a|--2-2-5-7-7-7-7-7-5-5-5-5-5-5-5-5-5-5----------------||
e|--------5-5-5-5-5-3-3-3-3-3-2-2-2-2-2----------------||

[End] with
e|---------||
b|---------||
g|--4-7----||
d|--4-7-7--||
a|--2-5-7--||
e|------5--||

************************************

| x  Dead note
| /  Slide up
| ~  Vibrato

************************************

[ Lyrics ]

Come here, please hold my hand for now
Help me, I'm scared please show me how to fight this,
God has a master plan
And I guess
I am in his demand
Please save me this time I cannot run
And I'll see you when this is done
And now I have come to realize
That you are the one who's left behind

Please stay until I'm gone
I'm here hold on to me I'm right here
Waiting

I see, a light it feels good
And I'll come back soon just like you would
It's useless, my name has made the list
And I wish, I gave you one last kiss

Please stay until I'm gone
I'm here hold on to me I'm right here
Waiting and take
My one last breath, and don't forget
That I will be right here
Waiting

Please stay until I'm gone
I'm here hold on to me I'm right here
Waiting and take
My one last breath, and don't forget
That I will be right here
Waiting

            
            
Suggest correction
Creating personal tab
Creating personal tab
You can edit any tab online and save it as your Personal.

You can edit, replace or remove any tab part or add personal notes – all changes will be seen only by you.

Personal tabs can be accessed anytime from any device, even offline.
Learn more »
comments
print report bad tab
61 comments total. Showing first comments.
+3 reply
harm0n20 226 Mar 30, 2005 07:00 PM

its on the new one but it was only released in the uk i believe.

+1 reply
ozzy182 10 Apr 21, 2005 08:00 PM

ya it was released over here and it kicks ass so much the tab looks decent aswell

+1 reply
BlinkMM182 31 Oct 25, 2005 11:28 AM

everone will have it now...it's on the Greatest Hits CD

guest
Wanna post a correction for this tab? Suggest correction