Oops, an error
Loading. Please wait.

Online Songs Bass Tab

version 4
version 4
16,105 views 9 this week
1 commentread comment
1 2 3 4 5
accurate
x 5
add to favorites
launch autoscroll
font size
0
reset
guitar tuner
Tab Pro tools
  • play this tab
  • loop segment
  • change instrument
  • show fretboard
  • metronome
×
Best way to learn
"Online Songs"
Autoscroll
slow
fast
+/-
esc
set tempo
stop
Contributor
Difficulty
Well iv seen sort of shit for bass tabs for Online Songs by Blink 182 and i
thought it needed a good fresh tab since its such a sick bassline...
So i decided to make up a tab for it..
May not be 100% correct, but it sounds pretty damn sweet with the song.
Surprisingly it's on only 1 string
Enjoy!!!

Tabbed By: by Mike (himynameismike3)Song By: Blink 182
Bass Line By: Mark Hoppus

Standard 4-String Bass Tuning

Intro

"Josie, Your My".....
|----------------------------------------------------------------------|
|----------------------------------------------------------------------|
|-0-000000---2-222222---5-555555---7-777777----------------------------|x4
|----------------------------------------------------------------------|
                     (4th time through,let last 7 ring)

Verse

"One, Two, Three, Four..."

(Now this beginning part faster and all notes right after the other)

|--------------------------------------------------------------|
|--------------------------------------------------------------|
|-00000000---22222222---55555555---77777777--------------------|
|--------------------------------------------------------------|

|--------------------------------------------------------------|
|--------------------------------------------------------------|
|-00000000---22222222---55555555---7-7-7-7---------------------|
|--------------------------------------------------------------|


"Why do you still keep it around when you know it brings me down,
I'm hating everything"......

|--------------------------------------------------------------|
|--------------------------------------------------------------|
|-00000000---22222222/9999--7777--00000000---------------------|
|--------------------------------------------------------------|
Don't Stop Playing between these 2...connect the top's last zeros and the bottoms first 
to make 16 in a row
|--------------------------------------------------------------|
|--------------------------------------------------------------|
|-00000000---22222222/9999--7777--00000------------------------|
|--------------------------------------------------------------|
            (Stop sound quick at last zero)

|--------------------------------------------------------------|
|--------------------------------------------------------------|
|-00000000---22222222---55555555---77777777--------------------|
|--------------------------------------------------------------|

|--------------------------------------------------------------|
|--------------------------------------------------------------|
|-00000000---22222222---55555555---7-7-7-7---------------------|
|--------------------------------------------------------------|

"Why am i still hanging around,
When I know it brings me down,
I'm hating everything"......

|--------------------------------------------------------------|
|--------------------------------------------------------------|
|-00000000---22222222/9999--7777--00000000---------------------|
|--------------------------------------------------------------|
Don't Stop Playing between these 2...connect the top's last zeros and the bottoms first 
to make 16 in a row
|--------------------------------------------------------------|
|--------------------------------------------------------------|
|-00000000---22222222/9999--7777--00000------------------------|
|--------------------------------------------------------------|
            (Stop sound quick at last zero)

Chorus

"Please dont remind me
Put your past behind me".....

|--------------------------------------------------------------|
|--------------------------------------------------------------| x2
|-00000000--22222222--77777777--55555555-----------------------|
|--------------------------------------------------------------|

Verse

"And if we can have another day,
i've got so much left to say,
I'd tell you everything"....

|--------------------------------------------------------------|
|--------------------------------------------------------------|
|-00000000---22222222/9999--7777--00000000---------------------|
|--------------------------------------------------------------|
Don't Stop Playing between these 2...connect the top's last                              
 zeros and the bottoms first ones to make 16 in a row
|--------------------------------------------------------------|
|--------------------------------------------------------------|
|-00000000---22222222/9999--7777---00000-----------------------|
|--------------------------------------------------------------|
            (Stop sound quick at last zero)

Chorus

"Please dont remind me
Put your past behind me".....

|--------------------------------------------------------------|
|--------------------------------------------------------------| x2
|-00000000--22222222--77777777--55555555-----------------------|
|--------------------------------------------------------------|

This next time it's the same thing but with a pause in the chorus.

|--------------------------------------------------------------|
|--------------------------------------------------------------| x2
|-00000000--77777777-(pause)--777777--55555555-----------------|
|--------------------------------------------------------------|
 This pause is VERY quick and hard to time but you will get it eventually

Interlude

"And she said, na na naa na"....

|--------------------------------------------------------------|
|--------------------------------------------------------------| x2
|---00----77----55555555-----77777777--------------------------|
|--------------------------------------------------------------|


"I just forgot you were there"

|--------------------------------------------------------------|
|--------------------------------------------------------------| x2
|---00000000----77777777----55555555----77777777---------------|
|--------------------------------------------------------------|


Chorus

"Please dont remind me
Put your past behind me".....

|--------------------------------------------------------------|
|--------------------------------------------------------------| x2
|-00000000--22222222--77777777--55555555-----------------------|
|--------------------------------------------------------------|

This next time it's the same thing but with a pause in the chorus.

|--------------------------------------------------------------|
|--------------------------------------------------------------| x2
|-00000000--77777777-(pause)-777777--55555555------------------|
|--------------------------------------------------------------|
 This pause is VERY quick and hard to time but you will get it eventually

Outro

|--------------------------------------------------------------|
|--------------------------------------------------------------|
|----7-7---55---0~~--------------------------------------------|
|--------------------------------------------------------------|


Thanks.... please rate and if u have any comments or questions
e-mail me at burkey393@gmail.com
comments
print report bad tab
1 comment total.
-1 reply
crashandburn_t wrote on March 18 2008, 05:19 pm

Sorry but no.

I want to post or [tab]
guest
You may want to rate the tab now too:
select rating
Please do not post tabs as comments. Select "correction" instead!