Oops, an error
Loading. Please wait.

Online Songs Bass Tab

version 5
version 5
19,110 views 66 this week
5 commentsread comments
1 2 3 4 5
excellent!
x 15
add to favorites
launch autoscroll
font size
0
reset
guitar tuner
Tab Pro tools
  • play this tab
  • loop segment
  • change instrument
  • show fretboard
  • metronome
×
Best way to learn
"Online Songs"
Autoscroll
slow
fast
+/-
esc
set tempo
stop
Contributor
Difficulty
Artist: Blink-182
Album: Take Off Your Pants And Jacket
Song: Online Songs
Track: 2
Year: 2001					

Standard Tuning:  E A D G						

						
Intro Part:1 (3x)
G|-----------------------------------------|
D|-----------------------------------------|
A|--------------------55555555-77777777----|
E|--55555555-77777777----------------------|


Intro Part:2 (1x)
G|------------------------------------|
D|------------------------------------|
A|---------------------55555555-7~----|
E|--55555555-77777777-----------------|


Intro Part:1 (1x)
G|-----------------------------------------|
D|-----------------------------------------|
A|--------------------55555555-77777777----|
E|--55555555-77777777----------------------|


Intro Part:3 (1x)
G|---------------------------------------|
D|---------------------------------------|
A|--------------------55555555-7-7-7~----|
E|--55555555-77777777--------------------|


Verse (2x)
G|----------------------------------------|
D|----------------------------------------|
A|--------------------5555-4444-----------|
E|--55555555-77777777-----------55555555--|


Pause


Intro Part:1 (1x)
G|-----------------------------------------|
D|-----------------------------------------|
A|--------------------55555555-77777777----|
E|--55555555-77777777----------------------|


Intro Part:3 (1x)
G|---------------------------------------|
D|---------------------------------------|
A|--------------------55555555-7-7-7~----|
E|--55555555-77777777--------------------|


Verse(2x)
G|------------------------------------------|
D|------------------------------------------|
A|--------------------5555-4444-------------|
E|--55555555-77777777-----------55555555----|


Chorus Part:1 (2x)
G|-----------------------------------------|
D|-----------------------------------------|
A|--5-5-5555----------7-7-7777-5-5-5555----|
E|-----------5-5-5555----------------------|


Verse(2x)
G|------------------------------------------|
D|------------------------------------------|
A|--------------------5555-4444-------------|
E|--55555555-77777777-----------55555555----|


Chorus Part:1 (2x)
G|-----------------------------------------|
D|-----------------------------------------|
A|--5-5-5555----------7-7-7777-5-5-5555----|
E|-----------5-5-5555----------------------|


Chorus Part:2 (2x)
G|--------------------------------------------|
D|--------------------------------------------|
A|--5-5-5555-----------------7777-5-5-5555----|
E|-----------5-5-5555-Pause-------------------|


Bridge Part:1 (2x)
G|-------------------------------------|
D|-------------------------------------|
A|----------7--------------55555555----|
E|--55-----5------77777777-------------|


Bridge Part:2 (2x)
G|-----------------------------------------|
D|-----------------------------------------|
A|-----------77777777----------55555555----|
E|--55555555----------77777777-------------|


Chorus Part:1 (2x)
G|-----------------------------------------|
D|-----------------------------------------|
A|--5-5-5555----------7-7-7777-5-5-5555----|
E|-----------5-5-5555----------------------|


Chorus Part:2 (2x)
G|--------------------------------------------|
D|--------------------------------------------|
A|--5-5-5555-----------------7777-5-5-5555----|
E|-----------5-5-5555-Pause-------------------|


Ending 
G|-------------|
D|-------------|
A|--555-5-7----|
E|-------------|
comments
print report bad tab
5 comments total. Showing first comments.
+3 reply
berny182 wrote on March 19 2008, 12:26 pm

100% correct, awesome job.

+2 reply
onewaybassplaya wrote on November 27 2008, 10:48 pm

freaking nice job bro

0 reply
crashandburn_t wrote on January 16 2009, 05:48 pm

Thank You!

I want to post or [tab]
guest
You may want to rate the tab now too:
select rating
Please do not post tabs as comments. Select "correction" instead!