Oops, an error
Loading. Please wait.
We have an official Online Songs tab made by UG professional guitarists. Check out the tab »
×
9,729 views 3 this week
4 commentsread comments
1 2 3 4 5
x 6
add to favorites
×
Save as Personal and add changes to this tab that will be seen only by you. Learn more ›
×
You can save this tab as Personal to edit and correct it or add notes. All changes will be seen only by you. Learn more »
launch autoscroll
font size
0
reset
how to read this tab
guitar tuner
edit
Autoscroll
slow
fast
+/-
esc
set tempo
stop
Author
.= P.M.
  
  
  Verse (0:09)(after bass solo first 8 measures)
  Gtr.1(clean)
1:----------------|----------------|----------------|----------------|
2:----------------|----------------|----------------|----------------|
3:----------------|----------------|----------------|----------------|
4:----0-----------|----------------|----0-----------|----------------|
5:--4---4-7---4---|--5-5---5---5---|--4---4-7---4---|--5-5---5---5---|
6:5---------------|5-----5---5-----|5---------------|5-----5---5-----|
  Everything you wished came true....

1:----------------|----------------|----------------|----------------|
2:----------------|----------------|----------------|----------------|
3:----------------|----------------|----------------|----------------|
4:----0-----------|----------------|----0-----------|2---------------|
5:--4---4-7---4---|--5-5---5---5---|--4---4-7---4---|2---------------|
6:5---------------|5-----5---5-----|5---------------|0---------------|
  
  
  Interlude (0:20)
  Gtr.1(dist)
1:----------------|----------------|----------------|----------------|
2:----------------|----------------|----------------|----------------|
3:----------------|----------------|----------------|----------------|
4:----------------|----------------|----------------|----------------|
5:--4-----7---4---|--5-----5---5---|--4-----7---4---|--5-----5---5---|
6:5---5-5---5-----|5---5-5---5-----|5---5-5---5-----|5---5-5---5-----|
  .   . .   .      .   . .   .      .   . .   .      .   . .   .      

1:----------------|----------------|----------------|----------------|
2:----------------|----------------|----------------|----------------|
3:----------------|----------------|----------------|--7---7---7---7-|
4:----------------|----------------|----------------|--7---7---7---7-|
5:--4-----7---4---|--5-----5---5---|--4-----7---4---|--5---5---5---5-|
6:5---5-5---5-----|5---5-5---5-----|5---5-5---5-----|----------------|
  .   . .   .      .   . .   .      .   . .   .
  
  
  Verse (0:30)
  Gtr.1(dist)
1:----------------|----------------|----------------|----------------|
2:----------------|----------------|----------------|----------------|
3:----------------|----------------|----------------|----------------|
4:7---------------|----------------|----------------|----------------|
5:x---------------|----------------|----------------|----------------|
6:5---------------|----------------|----------------|----------------|
  Why do you still keep it around...

1:----------------|----------------|----------------|----------------|
2:----------------|----------------|----------------|----------------|
3:----------------|----------------|----------------|----------------|
4:----------------|----------------|----------------|----------------|
5:----------------|----------------|----------------|----------------|
6:----------------|----------------|----------------|----------------|
  
  
  Interlude (0:40)
  Gtr.1(dist)
1:----------------|----------------|----------------|----------------|
2:----------------|----------------|----------------|----------------|
3:----------------|----------------|----------------|----------------|
4:----------------|----------------|----------------|----------------|
5:--4-----7---4---|--5-----5---5---|--4-----7---4---|--5-----5---5---|
6:5---5-5---------|5---5-5---------|5---5-5---------|5---5-5---------|
  .   . .          .   . .          .   . .          .   . .          

1:----------------|----------------|----------------|----------------|
2:----------------|----------------|----------------|----------------|
3:----------------|----------------|----------------|--7---7---7---7-|
4:----------------|----------------|----------------|--7---7---7---7-|
5:--4-----7---4---|--5-----5---5---|--4-----7---4---|--5---5---5---5-|
6:5---5-5---------|5---5-5---------|5---5-5---------|----------------|
  .   . .          .   . .          .   . .


  
  Verse (0:49)
  Gtr.1(dist)
1:----------------|----------------|----------------|----------------|
2:----------------|----------------|----------------|----------------|
3:----------------|----------------|----------------|----------------|
4:7---------------|----------------|----------------|----------------|
5:x---------------|----------------|----------------|----------------|
6:5---------------|----------------|----------------|----------------|
  Why am I still hanging around...

1:----------------|----------------|----------------|----------------|
2:----------------|----------------|----------------|----------------|
3:----------------|----------------|----------------|----------------|
4:----------------|----------------|----------------|----------------|
5:----------------|----------------|----------------|x\--------------|
6:----------------|----------------|----------------|x\--------------|
                                                     pick scrape

  
  Chorus (0:59)
  Gtr.1(dist)
1:----------------|----------------|----------------|----------------|
2:----------------|----------------|----------------|----------------|
3:7---7-7-7-7-7-7-|----------------|9---9-9-9-9-9-9-|7---7-7-7-7-7-7-|
4:7---7-7-7-7-7-7-|7---7-7-7-7-7-7-|9---9-9-9-9-9-9-|7---7-7-7-7-7-7-|
5:5---5-5-5-5-5-5-|7---7-7-7-7-7-7-|7---7-7-7-7-7-7-|5---5-5-5-5-5-5-|
6:----------------|5---5-5-5-5-5-5-|----------------|----------------|
  Please don't remind me...

1:----------------|----------------|----------------|----------------|
2:----------------|----------------|----------------|----------------|
3:7---7-7-7-7-7-7-|----------------|9---9-9-9-9-9-9-|7---7-7-7-7-7-7-|
4:7---7-7-7-7-7-7-|7---7-7-7-7-7-7-|9---9-9-9-9-9-9-|7---7-7-7-7-7-7-|
5:5---5-5-5-5-5-5-|7---7-7-7-7-7-7-|7---7-7-7-7-7-7-|5---5-5-5-5-5-5-|
6:----------------|5---5-5-5-5-5-5-|----------------|----------------|

  
  Verse (1:09)
  Gtr.1(dist)
1:----------------|----------------|----------------|----------------|
2:----------------|----------------|----------------|----------------|
3:----------------|----------------|----------------|----------------|
4:7---------------|----------------|----------------|----------------|
5:x---------------|----------------|----------------|----------------|
6:5---------------|----------------|----------------|----------------|
  And if we can have another day...

1:----------------|----------------|----------------|----------------|
2:----------------|----------------|----------------|----------------|
3:----------------|----------------|----------------|----------------|
4:----------------|----------------|----------------|----------------|
5:----------------|----------------|----------------|x\--------------|
6:----------------|----------------|----------------|x\--------------|
                                                     pick scrape
  
  
  Chorus (1:19)
  Gtr.1(dist)
1:----------------|----------------|----------------|----------------|
2:----------------|----------------|----------------|----------------|
3:7---7-7-7-7-7-7-|----------------|9---9-9-9-9-9-9-|7---7-7-7-7-7-7-|
4:7---7-7-7-7-7-7-|7---7-7-7-7-7-7-|9---9-9-9-9-9-9-|7---7-7-7-7-7-7-|
5:5---5-5-5-5-5-5-|7---7-7-7-7-7-7-|7---7-7-7-7-7-7-|5---5-5-5-5-5-5-|
6:----------------|5---5-5-5-5-5-5-|----------------|----------------|
  Please don't remind me...

1:----------------|----------------|----------------|----------------|
2:----------------|----------------|----------------|----------------|
3:7---7-7-7-7-7-7-|----------------|9---9-9-9-9-9-9-|7---7-7-7-7-7-7-|
4:7---7-7-7-7-7-7-|7---7-7-7-7-7-7-|9---9-9-9-9-9-9-|7---7-7-7-7-7-7-|
5:5---5-5-5-5-5-5-|7---7-7-7-7-7-7-|7---7-7-7-7-7-7-|5---5-5-5-5-5-5-|
6:----------------|5---5-5-5-5-5-5-|----------------|----------------|

1:----------------|----------------|----------------|----------------|
2:----------------|----------------|----------------|----------------|
3:7---7-7-7-7-7-7-|----------------|----9---9-9-9-9-|7---7-7-7-7-7-7-|
4:7---7-7-7-7-7-7-|7---7-7-7-7-7-7-|----9---9-9-9-9-|7---7-7-7-7-7-7-|
5:5---5-5-5-5-5-5-|7---7-7-7-7-7-7-|----7---7-7-7-7-|5---5-5-5-5-5-5-|
6:----------------|5---5-5-5-5-5-5-|----------------|----------------|

1:----------------|----------------|----------------|----------------|
2:----------------|----------------|----------------|----------------|
3:7---7-7-7-7-7-7-|----------------|----9---9-9-9-9-|7---7-7-7-7-7-7-|
4:7---7-7-7-7-7-7-|7---7-7-7-7-7-7-|----9---9-9-9-9-|7---7-7-7-7-7-7-|
5:5---5-5-5-5-5-5-|7---7-7-7-7-7-7-|----7---7-7-7-7-|5---5-5-5-5-5-5-|
6:----------------|5---5-5-5-5-5-5-|----------------|----------------|

  
  Bridge (1:38)
  Gtr.1(dist)
1:----------------|----------------|----------------|----------------|
2:----------------|----------------|----------------|----------------|
3:----------------|7---7-----------|----------------|----------------|
4:4---4-----------|7---7-----------|7-7-7-7-7-7-7-7-|2-2-2-2-2-2-2-2-|
5:4---4-----------|5---5-----------|7-7-7-7-7-7-7-7-|2-2-2-2-2-2-2-2-|
6:2---2-----------|----------------|5-5-5-5-5-5-5-5-|0-0-0-0-0-0-0-0-|
  Na, Na, Na...

1:----------------|----------------|----------------|----------------|
2:----------------|----------------|----------------|----------------|
3:----------------|7---7-----------|----------------|----------------|
4:4---4-----------|7---7-----------|7-7-7-7-7-7-7-7-|2-2-2-2-2-2-2-2-|
5:4---4-----------|5---5-----------|7-7-7-7-7-7-7-7-|2-2-2-2-2-2-2-2-|
6:2---2-----------|----------------|5-5-5-5-5-5-5-5-|0-0-0-0-0-0-0-0-|

1:----------------|----------------|----------------|----------------|
2:----------------|----------------|----------------|----------------|
3:----------------|7-7-7-7-7-7-7-7-|----------------|----------------|
4:4-4-4-4-4-4-4-4-|7-7-7-7-7-7-7-7-|7-7-7-7-7-7-7-7-|2-2-2-2-2-2-2-2-|
5:4-4-4-4-4-4-4-4-|5-5-5-5-5-5-5-5-|7-7-7-7-7-7-7-7-|2-2-2-2-2-2-2-2-|
6:2-2-2-2-2-2-2-2-|----------------|5-5-5-5-5-5-5-5-|0-0-0-0-0-0-0-0-|

1:----------------|----------------|----------------|----------------|
2:----------------|----------------|----------------|----------------|
3:----------------|7-7-7-7-7-7-7-7-|----------------|----------------|
4:4-4-4-4-4-4-4-4-|7-7-7-7-7-7-7-7-|7-7-7-7-7-7-7-7-|2-2-2-2-2-2-2-2-|
5:4-4-4-4-4-4-4-4-|5-5-5-5-5-5-5-5-|7-7-7-7-7-7-7-7-|2-2-2-2-2-2-2-2-|
6:2-2-2-2-2-2-2-2-|----------------|5-5-5-5-5-5-5-5-|0-0-0-0-0-0-0-0-|


  Chorus (1:57)
  Gtr.1(dist)
1:----------------|----------------|----------------|----------------|
2:----------------|----------------|----------------|----------------|
3:7---7-7-7-7-7-7-|----------------|9---9-9-9-9-9-9-|7---7-7-7-7-7-7-|
4:7---7-7-7-7-7-7-|7---7-7-7-7-7-7-|9---9-9-9-9-9-9-|7---7-7-7-7-7-7-|
5:5---5-5-5-5-5-5-|7---7-7-7-7-7-7-|7---7-7-7-7-7-7-|5---5-5-5-5-5-5-|
6:----------------|5---5-5-5-5-5-5-|----------------|----------------|
  Please don't remind me...

1:----------------|----------------|----------------|----------------|
2:----------------|----------------|----------------|----------------|
3:7---7-7-7-7-7-7-|----------------|9---9-9-9-9-9-9-|7---7-7-7-7-7-7-|
4:7---7-7-7-7-7-7-|7---7-7-7-7-7-7-|9---9-9-9-9-9-9-|7---7-7-7-7-7-7-|
5:5---5-5-5-5-5-5-|7---7-7-7-7-7-7-|7---7-7-7-7-7-7-|5---5-5-5-5-5-5-|
6:----------------|5---5-5-5-5-5-5-|----------------|----------------|

1:----------------|----------------|----------------|----------------|
2:----------------|----------------|----------------|----------------|
3:7---7-7-7-7-7-7-|----------------|----9---9-9-9-9-|7---7-7-7-7-7-7-|
4:7---7-7-7-7-7-7-|7---7-7-7-7-7-7-|----9---9-9-9-9-|7---7-7-7-7-7-7-|
5:5---5-5-5-5-5-5-|7---7-7-7-7-7-7-|----7---7-7-7-7-|5---5-5-5-5-5-5-|
6:----------------|5---5-5-5-5-5-5-|----------------|----------------|

1:----------------|----------------|----------------|----------------|
2:----------------|----------------|----------------|----------------|
3:7---7-7-7-7-7-7-|----------------|----9---9-9-9-9-|7---7-7-7-7-7-7-|
4:7---7-7-7-7-7-7-|7---7-7-7-7-7-7-|----9---9-9-9-9-|7---7-7-7-7-7-7-|
5:5---5-5-5-5-5-5-|7---7-7-7-7-7-7-|----7---7-7-7-7-|5---5-5-5-5-5-5-|
6:----------------|5---5-5-5-5-5-5-|----------------|----------------|

  
  Outro (2:17)
  Gtr.1(dist)                                               End (2:26)
1:----------------|----------------|----------------|----------------|
2:----------------|----------------|----------------|----------------|
3:--------------7-|----------------|----------------|----------------|
4:4---4---4---x-7-|---(let ring)---|----------------|----------------|
5:4---4---4---x-5-|----------------|----------------|----------------|
6:2---2---2-------|----------------|----------------|----------------|
Suggest correction
Creating personal tab
Creating personal tab
You can edit any tab online and save it as your Personal.

You can edit, replace or remove any tab part or add personal notes – all changes will be seen only by you.

Personal tabs can be accessed anytime from any device, even offline.
Learn more »
comments
print report bad tab
4 comments total. Showing first comments.
0 reply
Mr. spikyhair 10 Jun 08, 2007 03:39 PM

hey good tab dude

0 reply
Mr. spikyhair 10 Jun 08, 2007 03:40 PM

blink rockz

0 reply
smartin6988 177 Sep 17, 2009 01:44 PM

great tab man. much better and easier to read than the other 5 star one

guest
You may want to rate the tab now too:
select rating
Wanna post a correction for this tab? Suggest correction