Oops, an error
Loading. Please wait.

Party Song Bass Tab

version 2
version 2

Whole song

Interactive

783 views 9 this week
no commentswrite comment
1 2 3 4 5
please rate
add to favorites
launch autoscroll
font size
0
reset
guitar tuner
Tab Pro tools
  • play this tab
  • loop segment
  • change instrument
  • show fretboard
  • metronome
×
Best way to learn
"Party Song"
Autoscroll
slow
fast
+/-
esc
set tempo
stop
Contributor
Difficulty
Verse
G|-----------------------------------|
D|-----------------------------------|
A|---------66666666-33333333-66666666|x3
E|77777777---------------------------|

G|----------------------------------------------------|
D|----------------------------------------------------|
A|---------66666666-33333333--------------------------|x1
E|77777777--------------------77777777777777777777----|

Repeat Verse

Pre Chorus
Part 1
G|------------------------------------|
D|------------------------------------|
A|----6-3-6-----6-3-6-----------------|
E|--7--------7------------------------|
Part 2
G|------------------------------------|
D|------------------------------------|
A|-------6666--3333--6666-------------|x2 
E|7777--------------------------------|

Chorus
G|------------------------------------|
D|------------------------------------|
A|---------66666666-33333333-66666666-|x4
E|77777777----------------------------|

Verse
G|-----------------------------------|
D|-----------------------------------|
A|---------66666666-33333333-66666666|x3
E|77777777---------------------------|

G|----------------------------------------------------|
D|----------------------------------------------------|
A|---------66666666-33333333--------------------------|x1
E|77777777--------------------77777777777777777777----|



Pre Chorus
Part 1
G|------------------------------------|
D|------------------------------------|
A|----6-3-6-----6-3-6-----------------|
E|--7--------7------------------------|
Part 2
G|------------------------------------|
D|------------------------------------|
A|-------6666--3333--6666-------------|x2 
E|7777--------------------------------|

Chorus
G|------------------------------------|
D|------------------------------------|
A|---------66666666-33333333-66666666-|x6
E|77777777----------------------------|
comments
We did not receive enough feedback on this tab! Please rate:
print report bad tab
1 2 3 4 5
I want to post or [tab]
guest
You may want to rate the tab now too:
select rating
Please do not post tabs as comments. Select "correction" instead!