Oops, an error
Loading. Please wait.

Party Song Tab

version 3
version 3

Interactive

593 views 1 this week
1 commentread comment
1 2 3 4 5
please rate
add to favorites
launch autoscroll
font size
0
reset
how to read this tab
guitar tuner
Tab Pro tools
  • play this tab
  • loop segment
  • change instrument
  • show fretboard
  • metronome
×
Best way to learn
"Party Song"
Autoscroll
slow
fast
+/-
esc
set tempo
stop
blink 182  the party song.
Tabbed by alvaro        alvirito@latinmail.com.
  
Song: The party song
Band: Blink 182
Tabbed by: EL CUCCI

palm mute
----------------------------------------------------------
----------------------------------------------------------
-------------------9999999999--666666666666--999999999999-
-9999999999--9999999999--666666666666--999999999999-------
-9999999999--7777777777--444444444444--777777777777-------
-7777777777-----------------------------------------------

heavy distorsion
 ---------------------------------------------------------
----------------------------------------------------------
-------------------9999999999--666666666666--999999999999-
-9999999999--9999999999--666666666666--999999999999-------
-9999999999--7777777777--444444444444--777777777777-------
-7777777777----------------------------------------------- 

Chorus 
-----------------------------------------------
-----------------------------------------------
-----------------------------------------------
-----------------------------------------------
-9--7--6-----7--6-----7--6-----7--6------------
------------7--------7--------7--------7-------

-----------------------------------------------------------
-----------------------------------------------------------
-------------------9-9-9-9-9-9----6-6-6-6-6-6--9-9-9-9-9-9-
--9-9-9-9-9-9---9-9-9-9-9-9---6-6-6-6-6-6--9-9-9-9-9-9-----
--9-9-9-9-9-9---7-7-7-7-7-7---4-4-4-4-4-4--7-7-7-7-7-7-----
--7-7-7-7-7-7----------------------------------------------



------------------------------------------------------------------------
------------------------------------------------------------------------
------------------------------------------------------------------------
------------------------------------------------------------------------
--9-7-6---7-6-------7-6----7-6-------7-6-----7-6------7-6---7-6---------
---------9------9-7-------9-------9-7-------9--------9-7------9-----9-7-

EL FINAL

Lyrics 
 
Do you want to come to a party My friends picked me up in  
their truck at 11:30 This thing's at a frat house but the 
people are cool there Reluctant I followed but I never 
dreamed there Would be someone there who would catch my  
attention I wasn't out looking for love or affection So I  
paid my 3 and the girls got in free Shined the beer for 
teguila and we headed into the party And then in the backyard some terrible 
ska band Someone in the background was doing a keg stand This place is so lame 
all these girls look the same All these guys have no game I wish I would have 
stayed In my bed back at home watching TV alone Where I'd put on some porn or 
have sex on the phone Far from people I hate down from  anywhere state Trying 
to intoxicate girls to give them head after the party 

And then I saw her standing there With green eyes and long  
blond hair She wasn't wearing underwear at least I prayed 
that She might be the one maybe we'd have some fun Maybe 
we'd watch the sun rise But that night I learned some girls 
try too hard Some girls try too hard Some girls try to hard 
to impress With the way that they dress With those things 
on their chests And the things they suggest to me 

I couldn't believe what this lady was saying The names she  
was dropping the games she was playing She dated this guy who now rides for 
Black Flys How she's down with the 'wise  
well-constructed disguise Now I'd rather go dateless than stay here and hate 
this Her volume of makeup her fake tits were tasteless So I said I'd call her 

So when you see her standing there With green eyes and long 
blonde hair She won't be wearing underwear and you'll discover This girl's not 
the one and she'll never be fun You should just turn and run because you'll 
find out that Some girls try too hard Some girls try too hard to impress with 
the way that they dress With those things on their chest And the things thay 
suggest to me  

alvirito@latinmail.com 
:: Ultimate Guitar Archive :: 
http://www.ultimate-guitar.com
comments
We did not receive enough feedback on this tab! Please rate:
print report bad tab
1 2 3 4 5
1 comment total.
0 reply
bustabeat wrote on January 21 2002, 12:00 am

Some of the lyrics r wrong for example its 'kick on some porn' not put on some porn. and theres others there but i cant be bothered pointing them out

I want to post or [tab]
guest
You may want to rate the tab now too:
select rating
Please do not post tabs as comments. Select "correction" instead!