Oops, an error
Loading. Please wait.

Pathetic Tab

version 3
version 3

Interactive

Video

1,093 views 1 this week
4 commentsread comments
1 2 3 4 5
accurate
x 6
add to favorites
launch autoscroll
font size
0
reset
how to read this tab
guitar tuner
Tab Pro tools
  • play this tab
  • loop segment
  • change instrument
  • show fretboard
  • metronome
×
Best way to learn
"Pathetic"
Autoscroll
slow
fast
+/-
esc
set tempo
stop
this is my first tab so dont complain if it sux> but here it is hope you like it
     
itnro: played 5 x             *=palm mute

e:-----------------------------------------------------------------------------
b:-5--7---0--0--0--0--5--7--0--0--0--0--5--7--0--0--0--0--4--0--4--0-4----------
g:------------------------------------------------------------------------------
d:------------------------------------------------------------------------------
a:------------------------------------------------------------------------------
e:------------------------------------------------------------------------------
  
  verse 1: you know im pathetic ... play 4 X
e:------------------------------------------------------------------------------
b:------------------------------------------------------------------------------
g:--5-5-5-5-5-5-5-5-5-5--12-12-12-12-12--10-10-10-10-10-------------------------
d:--5-5-5-5-5-5-5-5-5-5--12-12-12-12-12--10-10-10-10-10-------------------------
a:--3-3-3-3-3-3-3-3-3-3--10-10-10-10-10--8--8--8--8--8--------------------------
e:------------------------------------------------------------------------------
    
        chorus: dont hold me down .... x 2
e:------------------------------------------------------------------------------
b:------------------------------------------------------------------------------
g:----------------5-----------------5-------------------------------------------
d:-5-5-5-5-5-5-5--5--5-5-5-5-5-5-5--5--3-3-3-3-3-3-3-3-3-3-3-3------------------
a:-5-5-5-5-5-5-5--3--5-5-5-5-5-5-5--3--3-3-3-3-3-3-3-3-3-3-3-3------------------
e:-7-7-7-7-7-7-7-----3-3-3-3-3-3-3-----1-1-1-1-1-1-1-1-1-1-1-1------------------

into: x4
verse 1:x4

             played: x2
e:------------------------------------------------------------------------------
b:------------------------------------------------------------------------------
g:----------------5-----------------5-------------------------------------------
d:-5-5-5-5-5-5-5--5--5-5-5-5-5-5-5--5--3-3-3-3-3-3-3-3-3-3-3-3------------------
a:-5-5-5-5-5-5-5--3--5-5-5-5-5-5-5--3--3-3-3-3-3-3-3-3-3-3-3-3------------------
e:-7-7-7-7-7-7-7-----3-3-3-3-3-3-3-----1-1-1-1-1-1-1-1-1-1-1-1------------------
---*-*-*-*-*-*-*-----*-*-*-*-*-*-*-----*-*-*-*-*-*-*-*-*-*-*-*------------------

intro: x4
chorus:x2
                ( ending )
e:------------------------------------------------------------------------------
b:------------------------------------------------------------------------------
g:-5-5--------------------------------------------------------------------------
d:-5-5--------------------------------------------------------------------------
a:-3-3--------------------------------------------------------------------------
e:------------------------------------------------------------------------------
comments
print report bad tab
4 comments total. Showing first comments.
0 reply
prdgyguitrist18 wrote on December 30 2002, 12:00 am

Nice tab, the intro sounds right on that scale. but you can also play is higher up the neck at the 9th fret, thats how tom actually plays it live.

0 reply
emoholiday wrote on January 4 2003, 12:00 am

the chorus is actually:
e-------------------------------------
B-------------------------------------
G-------5-------5---------------------
D-7-7-7-5-5-5-5-5-3-3-3-3-3-3---------
A-7-7-7-3-5-5-5-3-3-3-3-3-3-3---------
E-5-5-5---3-3-3---1-1-1-1-1-1---------

other than that, dead on. good job.

0 reply
rockstarbowker wrote on December 13 2006, 08:30 pm

Just play it one step lower.

I want to post or [tab]
guest
You may want to rate the tab now too:
select rating
Please do not post tabs as comments. Select "correction" instead!