Oops, an error
Loading. Please wait.

Pathetic Tab

version 5
version 5

Interactive

Video

11,590 views 33 this week
1 commentread comment
1 2 3 4 5
excellent!
x 8
add to favorites
launch autoscroll
font size
0
reset
how to read this tab
guitar tuner
Tab Pro tools
  • play this tab
  • loop segment
  • change instrument
  • show fretboard
  • metronome
×
Best way to learn
"Pathetic"
Autoscroll
slow
fast
+/-
esc
set tempo
stop
Contributor
Difficulty
intermediate
Pathetic by Blink 182
**The Lead and Rhythm guitars always play simultaneously.**
Key: (x)= Previous note rings to this location 
     |-| = Palm mute
Order: Intro
       Chorus
       Interlude
       Verse 1
       Intro
       Chorus
       Interlude
       Verse 2
       Intro - only play the first 3 parts
       Outro
Lead Guitar
Intro
e||-----------------------------------||
A||-5-7-(0)--5-7-(0)--5-7-(0)--040404-||
D||-----------------------------------||        x3
G||-----------------------------------||
B||-----------------------------------||
E||-----------------------------------||

e||---------------------------||
A||-5-7-(0)--5-7-(0)--5-7-(0)-||
D||---------------------------||        x1
G||---------------------------||
B||---------------------------||
E||---------------------------||


Rhythm
Intro
e||-------------------------------------||
B||-------------------------------------||
G||-------------------------------------||      x3
D||-9-----(9)-9-----(9)-9-----------(9)-||
A||-6-----(6)-7-----(7)-9-----------(9)-||
E||---------------------7-----------(7)-||

e||---------------------------------------------||
B||---------------------------------------------||
G||---------------------------------------------|| x1
D||-9-----(9)-9-----(9)-9-9--9-9--9-9--9-9--9-9-||
A||-6-----(6)-7-----(7)-9-9--9-9--9-9--9-9--9-9-||
E||---------------------7-7--7-7--7-7--7-7--7-7-||

Both Guitars
Chorus
e||---------------------------------------------------||
B||---------------------------------------------------||
G||-11-11-11-11-11-11-9-9-9-9-------------------------||  x3
D||-11-11-11-11-11-11-9-9-9-9-9-9--9-9--9-9--9-9--9-9-||
A||-9--9--9--9—-9—-9--7-7-7-7-9-9--9-9--9-9--9-9--9-9-||
E||---------------------------7-7--7-7--7-7--7-7--7-7-||

Interlude
e||---------------------------||
B||---------------------------||
G||-11-11-11-11-11-11-9-9-9-9-||  x1
D||-11-11-11-11-11-11-9-9-9-9-||
A||-9--9--9--9--9--9--7-7-7-7-||
E||---------------------------||

Verse 1
e||----------------------------------------------||
B||----------------------------------------------||
G||----------4----------4------------------------||     x2  
D||-6----(6)-4-4----(4)-4-2--2--2--2--2--2--2--2-||
A||-6----(6)-2-4----(4)-2-2--2--2--2--2--2--2--2-||
E||-4----(4)---2----(2)---0--0--0--0--0--0--0--0-||

Verse 2
e||------------------------------------------------|
B||----------4-(4)---------4-(4)-------------------|
G||----------4-(4)---------4-(4)-------------------|   
D||-6-666666-2-(2)4-444444-2-(2)2-2222222-22222222-|
A||-6-666666------4-444444------2-2222222-22222222-|
E||-4-444444------2-222222------0-0000000-00000000-|
PM    |-----|       |-----|       |----|  |------|




e|---------------------------------------------||
B|----------4-(4)---------4-(4)----------------||
G|----------4-(4)---------4-(4)----------------||   x1
D|-6-666666-2-(2)4-444444-2-(2)2-2-2-2-2-2-2-2-||
A|-6-666666------4-444444------2-2-2-2-2-2-2-2-||
E|-4-444444------2-222222------0-0-0-0-0-0-0-0-||
PM   |-----|       |-----| 
         
Lead
Outro
e||----------------------------------------------|
B||----------------------------------------------|
G||----------4----------4------------------------|
D||-6----(6)-4-4----(4)-4-2--2--2--2--2--2--2--2-|
A||-6----(6)-2-4----(4)-2-2--2--2--2--2--2--2--2-|
E||-4----(4)---2----(2)---0--0--0--0--0--0--0--0-|

e|-------------------------------------------------||
B|-------------------------------------------------||
G|----------4----------4------------------------44-||   x1
D|-6----(6)-4-4----(4)-4-2--2--2--2--2--2--2--2-44-||
A|-6----(6)-2-4----(4)-2-2--2--2--2--2--2--2--2-22-||
E|-4----(4)---2----(2)---0--0--0--0--0--0--0--0----||

Rhythm Guitar
Outro
e||------------------------------------------------------------------|
B||------------------------------------------------------------------|
G||--------------------4--------------------4------------------------|
D||-6-6--6-6--6-6--6-6-4-4-4--4-4--4-4--4-4-4-2--2--2--2--2--2--2--2-|
A||-6-6--6-6--6-6--6-6-2-4-4--4-4--4-4--4-4-2-2--2--2--2--2--2--2--2-|
E||-4-4--4-4--4-4--4-4---2-2--2-2--2-2--2-2---0--0--0--0--0--0--0--0-|

e||---------------------------------------------------------------------|
B||---------------------------------------------------------------------|
G||--------------------4--------------------4------------------------44-|
D||-6-6--6-6--6-6--6-6-4-4-4--4-4--4-4--4-4-4-2--2--2--2--2--2--2--2-44-|       x1
A||-6-6--6-6--6-6--6-6-2-4-4--4-4--4-4--4-4-2-2--2--2--2--2--2--2--2-22-|
E||-4-4--4-4--4-4--4-4---2-2--2-2--2-2--2-2---0--0--0--0--0--0--0--0----|

Tablature by: ThAt MyErS kId
comments
print report bad tab
1 comment total.
0 reply
zombie_bassmen wrote on May 30 2010, 03:11 pm

Great work man! :) 5. :)

I want to post or [tab]
guest
You may want to rate the tab now too:
select rating
Please do not post tabs as comments. Select "correction" instead!