Oops, an error
Loading. Please wait.

Peggy Sue Bass Tab

version 1
version 1

Whole song

Interactive

3,962 views 1 this week
1 commentread comment
1 2 3 4 5
accurate
x 4
add to favorites
launch autoscroll
font size
0
reset
guitar tuner
Tab Pro tools
  • play this tab
  • loop segment
  • change instrument
  • show fretboard
  • metronome
×
Best way to learn
"Peggy Sue"
Autoscroll
slow
fast
+/-
esc
set tempo
stop
Song: Peggy Sue
Band: Blink 182
Album: Cheshie Cat
Tabbed by Terra ( bass_182@hotmail.com)

  The other tab made by Matt Nielsen was quite correct unless the chorus
part. It's 100% correct now.

Intro:

G:-------------------
D:-------------------
A:----5>----7>-5>----
E:-5>----5>-------5>-

Verse:

G:-------------------
D:-------------------
A:--------------------
E:-5>-2>-5>-0-0-2-2-0-

Chorus:

G:-----------------------
D:-----------------------
A:-5>----10-9-7-9-7---7>-
E:----5>------------5>---

Bridge:

G:---------
D:---------
A:------5>-
E:-5>-0>---
comments
print report bad tab
1 comment total.
0 reply
BenjaUribe wrote on April 29 2013, 09:56 pm

I Think:

Bridge:
G|-----------------|----------------|----------------|----------------|
D|-----------------|----------------|----------------|-0--0-0-0-2--0--|
A|-0--0-0-0--0---0-|-0--0-0-0-0--2--|----------------|----------------|
E|-----------------|----------------|-0--0-0-0-0-0-0-|----------------|

I want to post or [tab]
guest
You may want to rate the tab now too:
select rating
Please do not post tabs as comments. Select "correction" instead!