Oops, an error
Loading. Please wait.

Peggy Sue Live Tab

version 1
version 1

Solo

Whole song

Interactive

2,195 views 3 this week
1 commentread comment
1 2 3 4 5
excellent!
x 2
add to favorites
launch autoscroll
font size
0
reset
how to read this tab
guitar tuner
Tab Pro tools
  • play this tab
  • loop segment
  • change instrument
  • show fretboard
  • metronome
Autoscroll
slow
fast
+/-
esc
set tempo
stop
                           "Peggy Sue"
                              Live


Intro
e-------0---------0---------------0-----------------------------------|
b-2-222---2-2-222---2----3--2-222---2---------------------------------|
g-2---------2------------2--2----------9---9--9--9---7---7---7--7-----|
d-2---------2------------0--2----------9-9---9--9----7-7---7---7----7-|
a-0---------0---------------0----------7-------------5--------------7-|
E-------------------------------------------------------------------5-|

A5               F#5          D5                     Em Em F#5 F#5 Em
I know what it's like to be alone sitting in your room
A5            F#5                D5
Listening to all those doubts that your parents have to say to you
A5                      F#5           D5                Em EM F# F# Em
As your head gets all cluttered inside  try to stay awake     (5)(5)
A5               F#5         D5
Everything they say are lies  That's all the shit that you
Em Em F#5 F#5 Em
Ever have to take so...

Chorus
D5                   A5
Hold in all your aggressions because you're
D5             A5            E5     D5
Grinding your teeth on down to the bottom of your chin
D5                         A5
It's not easy or so damn pleasing to not laugh
D5        A5             E5             D5
At every word they say as they tell you what to be
D5           A5
You're not alone

(Repeat Intro)
(Verse 2 Same Chords)
A5               F#5          D5                     Em Em F#5 F#5 Em
I know what it's like to be denied at everything you do
A5            F#5                D5
It's not the same reason why that Makes you change the things that you once knew
A5                      F#5           D5                Em EM F# F# Em
As your head gets all cluttered inside Give more than you take
A5               F#5         D5
Everything they say are lies That's all the shit that you
Em Em F#5 F#5 Em
Ever have to take so...

Chorus
D5                   A5
Hold in all your aggressions because you're
D5             A5            E5     D5
Grinding your teeth on down to the bottom of your chin
D5                         A5
It's not easy or so damn pleasing to not laugh
D5        A5             E5             D5
At every word they say as they tell you what to be
D5           A5
You're not alone

e-----------------------|
b-----------------------|
g-----------------------|
d---7-7-7---7--6/7/9----|
a--0-0-0---0------------|x4
E-----------------------|


e-----------------------------|
b--10------9---9/10--10-9/12--|
g-----9-9----9------9---------|
d-----------------------------|
a-----------------------------|x2
E-----------------------------|

Bass Solo

You say you want to take off your shoes
And Walk barefoot down the street
Just to be the things that you can be
Just live for one more week GO!

Bridge (Bridge also played during bridge lyrics 2nd time)
e-------------------------|
b-------------------------|
g6/7/9---6/7/9--9999/6666-|
d-------------------------| x4(last 2 times during lyrics)
a4/5/7---4/5/7--7777/4444-|
e-------------------------|


Bridge With Lyrics

e--------------|
b--------------|
g6/7/9---6-----|7/9(play so goes for whole sentence)
d--------------|
a4/5/7---4/5/7-|
e--------------|
You say you want to take off your shoes


e---------|
b---------|
g9999/6666
d--------- (play so goes for whole sentence)
a7777/4444
E---------
And Walk barefoot down the street

e--------------|
b--------------|
g6/7/9---6-----|7/9(play so goes for whole sentence)
d--------------|
a4/5/7---4/5/7-|
e--------------|
Just to be the things that you can be

e---------|
b---------|
g9999/6666
d--------- (play so goes for whole sentence)
a7777/4444
E---------
Just live for one more week


Chorus
D5                   A5
Hold in all your aggressions because you're
D5             A5            E5     D5
Grinding your teeth on down to the bottom of your chin
D5                         A5
It's not easy or so damn pleasing to not laugh
D5        A5             E5             D5
At every word they say as they tell you what to be
D5           A5
You're not alone


Chord Chart
e----------------|
b----------------|
g-------7-----9--|
d-7--4--7--2--9--|
a-7--4--5--2--7--|
e-5--2-----0-----|
 A5 F#5 D5 Em E5


email me if u think its worng
ecca@ericsmail.com
listen to the song to get the timing
and even the timing for the bridge is hard but u'll get once u play to the song

later ecca
comments
We did not receive enough feedback on this tab! Please rate:
print report bad tab
1 2 3 4 5
1 comment total.
0 reply
Kameliasz wrote on July 6 2009, 10:31 am

e-----------------------------|
b--10------9---9/10--10-9/12--|
g-----9-9----9------9---------| it's wrong
d-----------------------------|
a-----------------------------|
E-----------------------------|

It should be:
e--------------------------------|
b--10------9---9/10--10-9/10/12--|
g-----9-9----9------9------------|
d--------------------------------|
a--------------------------------|
E--------------------------------|

I want to post or [tab]
guest
You may want to rate the tab now too:
select rating
Please do not post tabs as comments. Select "correction" instead!