Oops, an error
Loading. Please wait.

Peggy Sue Bass Tab

version 3
version 3

Whole song

Interactive

694 views 1 this week
no commentswrite comment
1 2 3 4 5
please rate
add to favorites
launch autoscroll
font size
0
reset
guitar tuner
Tab Pro tools
  • play this tab
  • loop segment
  • change instrument
  • show fretboard
  • metronome
×
Best way to learn
"Peggy Sue"
Autoscroll
slow
fast
+/-
esc
set tempo
stop
Contributor
----------------------------------------------------------------------------
                          Peggy Sue-Blink 182
----------------------------------------------------------------------------
Album:Cheshire Cat
Tuning:Standard

Tabbed by:WARNINGnimrod12
Email:WARNINGnimrod182@aim.com




  INTRO

   G|-------------------------------------------------------------------|
   D|-------------------------------------------------------------------|
   A|-------------------------------------------------------------------|
   E|---5--5-5-5-5-5-5-5-5-5-5-5-5-5-5-5--5-5-5-5-5-5-5-5-5-5-5-5-5-5---|


   G|-------------------------------------------------------------------|
   D|-------------------------------------------------------------------|
   A|---5--5-5-5-5-5-5-5-5-5-5-5-5-5-5----------------------------------|
   E|----------------------------------5--5-5-5-5-5-5-5-5-5-5-5-5-5-5---|


   G|-------------------------------------------------------------------|
   D|-------------------------------------------------------------------|
   A|---7--7-7-7-7-7-7-5--5-5-5-5-5-5-----------------------------------|
   E|---------------------------------5-5-5-5-5-5-5-5-5-5-5-5-5-5-5-5---|


  VERSE

   G|--------------------------------------------------------------|
   D|--------------------------------------------------------------|
   A|---------------------------------5--5-5-5-5-5-5---------------| x4
   E|---5--5-5-5-5-5-5-2--2-2-2-2-2-2----------------0--0-2--2-0---|


  CHORUS

   G|-------------------------------------------------------------------|
   D|-------------------------------------------------------------------|
   A|---5--5-5-5-5-5-5-5-5-5-5-5-5-5-5----------------------------------|
   E|----------------------------------5--5-5-5-5-5-5-5-5-5-5-5-5-5-5---|


   G|-------------------------------------------------------------------|
   D|-------------------------------------------------------------------|
   A|---5-5-5-5-5-5-5-5-5-5-5-5-5-5-5-5----------------7--7-7-7-7-7-7---|
   E|-----------------------------------5--5-5-5-5-5-5------------------|


   G|-------------------------------------------------------------------|
   D|-------------------------------------------------------------------|
   A|---5--5-5-5-5-5-5-5-5-5-5-5-5-5-5----------------------------------|
   E|----------------------------------5--5-5-5-5-5-5-5-5-5-5-5-5-5-5---|


   G|-------------------------------------------------------------------|
   D|-------------------------------------------------------------------|
   A|---5-5-5-5-5-5-5-5-5-5-5-5-5-5-5-5----------------7--7-7-7-7-7-7---|
   E|-----------------------------------5--5-5-5-5-5-5------------------|


  INTRO

  VERSE 2 x4

  CHORUS 2

  BRIDGE

   G|------------------------------------------------------------------|
   D|------------------------------------------------------------------|
   A|-----------------------------------------------5--5-5-5-5-5-5-5---| x3
   E|---5--5-5-5-5-5-5--5-5-5-5-5-5-5-0-0-0-0-0-0-0--------------------|


   G|----------------------------------------------------------|
   D|----------------------------------------------------------|
   A|---------------------------------------------5--5--5--5---|
   E|---5--5-5-5-5-5-5--5-5-5-5-5-5-5-0--0--0--0---------------|


   G|------------------------------------------------------------------|
   D|------------------------------------------------------------------|
   A|-----------------------------------------------5--5-5-5-5-5-5-5---| x4
   E|---5--5-5-5-5-5-5--5-5-5-5-5-5-5-0-0-0-0-0-0-0--------------------|


  CHORUS 3

   G|-------------------------------------------------------------------|
   D|-------------------------------------------------------------------|
   A|---5--5-5-5-5-5-5-5-5-5-5-5-5-5-5----------------------------------|
   E|----------------------------------5--5-5-5-5-5-5-5-5-5-5-5-5-5-5---|


   G|-------------------------------------------------------------------|
   D|-------------------------------------------------------------------|
   A|---5-5-5-5-5-5-5-5-5-5-5-5-5-5-5-5----------------7--7-7-7-7-7-7---|
   E|-----------------------------------5--5-5-5-5-5-5------------------|


   G|-------------------------------------------------------------------|
   D|-------------------------------------------------------------------|
   A|---5--5-5-5-5-5-5-5-5-5-5-5-5-5-5----------------------------------|
   E|----------------------------------5--5-5-5-5-5-5-5-5-5-5-5-5-5-5---|


   G|-------------------------------------------------------------------|
   D|-------------------------------------------------------------------|
   A|---5-5-5-5-5-5-5-5-5-5-5-5-5-5-5-5----------------7--7-7-7-7-7-7---|
   E|-----------------------------------5--5-5-5-5-5-5------------------|


   G|--------|
   D|--------|
   A|--------|
   E|---5~---|


comments
We did not receive enough feedback on this tab! Please rate:
print report bad tab
1 2 3 4 5
I want to post or [tab]
guest
You may want to rate the tab now too:
select rating
Please do not post tabs as comments. Select "correction" instead!