Oops, an error
Loading. Please wait.

Please Take Me Home Tab

version 3
version 3
1,980 views 1 this week
3 commentsread comments
1 2 3 4 5
accurate
x 10
add to favorites
launch autoscroll
font size
0
reset
how to read this tab
guitar tuner
Tab Pro tools
  • play this tab
  • loop segment
  • change instrument
  • show fretboard
  • metronome
×
Best way to learn
"Please Take Me Home"
Autoscroll
slow
fast
+/-
esc
set tempo
stop
Contributor
Artist:Blink 182
Song:Please Take Me Home
Album:Take Off Your Pants And Jacket

This song is in standard tuning(EADGBe)
This song has 3 guitars in it.  So listen to the song to 
figure it out. guitar 2 and 3 are mostly playing Riff A and the Verse.
You'll eventually figure it out.

(Clean) (Riff A)
e------------------------------------------------------
B------------------------------------------------------
G-3\8-8-8-8-8-8-8-8-8-8-8-8-8-8-8-8\-4-4-4-4-4-4-4-4-4-
D-x-x-x-x-x-x-x-x-x-x-x-x-x-x-x-x-x--x-x-x-x-x-x-x-x-x-
A-1\6-6-6-6-6-6-6-6-6-6-6-6-6-6-6-6\-2-2-2-2-2-2-2-2-2-
E---7-7-7-7-7-7-7-7-7-7-7-7-7-7-7-7--------------------
			           (End of Riff A)
e-------------------------------------------------
B-------------------------------------------------
G-(4)\8-8-8-8-8-8-8-8-8-8-8-8-8-8-8-8\-4-4-4-4-4--
D-(-)-x-x-x-x-x-x-x-x-x-x-x-x-x-x-x-x--x-x-x-x-x--
A-(2)\6-6-6-6-6-6-6-6-6-6-6-6-6-6-6-6\-2-2-2-2-2--
E-----7-7-7-7-7-7-7-7-7-7-7-7-7-7-7-7-------------

                                                  (Verse)
 Oh,  No,   it   hap-pened a-gain____ 
P.M.......................................................
e---------------------------------------------------------
B---------------------------------------------------------
G---------------------------------------------------------
D-4-4-4-4-4-4-4-6-6-6-6-6-6-6-6---------------------------
A-2-2-2-2-2-2-2-4-4-4-4-4-4-4-4-6-6-6-6-6-6-2-2-2-2-2-2-2-
E-------------------------------4-4-4-4-4-4-0-0-0-0-0-0-0-

She's cool, she's hot, she's my friend I'd drive for hours it's so
e-----------------------------------------------------
B-----------------------------------------------------
G-(4)\8-8-8-8-8-8-8-8-8-8-8-8-8-8-8-8-8\-4-4-4-4-4-4--
D-(-)-x-x-x-x-x-x-x-x-x-x-x-x-x-x-x-x-x--x-x-x-x-x-x--
A-(2)\6-6-6-6-6-6-6-6-6-6-6-6-6-6-6-6-6\-2-2-2-2-2-2--
E-----7-7-7-7-7-7-7-7-7-7-7-7-7-7-7-7-7---------------

You leave me no where to go              
e-----------------------------------------------------
B-----------------------------------------------------
G-(4)\8-8-8-8-8-8-8-8-8-8-8-8-8-8-8-8-8\-4-4-4-4-4-4--
D-(-)-x-x-x-x-x-x-x-x-x-x-x-x-x-x-x-x-x--x-x-x-x-x-x--
A-(2)\6-6-6-6-6-6-6-6-6-6-6-6-6-6-6-6-6\-2-2-2-2-2-2--
E-----7-7-7-7-7-7-7-7-7-7-7-7-7-7-7-7-7---------------

                                             (Riff C)

 She's  un-stoppable  un-predictable   I'm   so   jaded 
e---------------------------------------------------
B---------------------------------------------------
G-------------------4-4-4-4-4-----------------------
D-2-2-2-2-2---------4-4-4-4-4---------6-6-6-6-6-----
A-2-2-2-2-2---------2-2-2-2-2---------6-6-6-6-6-----
E-0-0-0-0-0---------------------------4-4-4-4-4-----

 Cal-cu-la-ted Wrong            		(Riff D)
e----------------------------------------------------------
B----------------------------------------------------------
G--------------------------------------------3-3-3-3-3-3---
D-4-4-4-4-4-------2-2-2-2-2-2-2-2-2-2-2-2-2--3-3-3-3-3-3---
A-4-4-4-4-4-------2-2-2-2-2-2-2-2-2-2-2-2-2--1-1-1-1-1-1---
E-2-2-2-2-2-------0-0-0-0-0-0-0-0-0-0-0-0-0--------------2-

 (Playing in Backround of)         (Riff D)
e--------------------------------------------------------
B--------------------------------------------------------
G--------------------------------------------------------
D-4-4-4-4-4-------2-2-2-2-2-2-2-2-2-2-2-2-2--4-4-4-4-4-4-
A-4-4-4-4-4-------2-2-2-2-2-2-2-2-2-2-2-2-2--x-x-x-x-x-x-
E-2-2-2-2-2-------0-0-0-0-0-0-0-0-0-0-0-0-0--2-2-2-2-2-2-

(Chorus)
 Please      take      me       home     to      late   
e---------------------------------------------------------
B---------------------------------------------------------
G-4-4-4-4-4-4-4-4-----------------------------------------
D-4-4-4-4-4-4-4-4-4-4-4-4-4-4-4-4-6-6-6-6-6-6-6-6-2-2-2-2-
A-2-2-2-2-2-2-2-2-1-1-1-1-1-1-1-1-6-6-6-6-6-6-6-6-2-2-2-2-
E---------------------------------4-4-4-4-4-4-4-4-0-0-0-0-
          
 it's gone   I bet your     sad this is the best time we ever had
e---------------------------------------------------------
B---------------------------------------------------------
G---------4-4-4-4-4-4-4-4---------------------------------
D-2-2-2-2-4-4-4-4-4-4-4-4-4-4-4-4-4-4-4-4-6-6-6-6-6-6-6-2-
A-2-2-2-2-2-2-2-2-2-2-2-2-1-1-1-1-1-1-1-1-6-6-6-6-6-6-6-2-
E-0-0-0-0---------------------------------4-4-4-4-4-4-4-0-

         				(verse 2)
 Buy  Hope   hope  that  it lasts
e-----------------------------------------------------
B-----------------------------------------------------
G-8-8-8-8-8-8-8-8-8-8-8-8-8-8-8-8-8-8-8-8\4-4-4-4-4-4-
D-x-x-x-x-x-x-x-x-x-x-x-x-x-x-x-x-x-x-x-x\x-x-x-x-x-x-
A-6-6-6-6-6-6-6-6-6-6-6-6-6-6-6-6-6-6-6-6\2-2-2-2-2-2-
E-7-7-7-7-7-7-7-7-7-7-7-7-7-7-7-7-7-7-7-7-------------

 Give in forget the past     Be strong when things fall apart
e-----------------------------------------------------
B-----------------------------------------------------
G-8-8-8-8-8-8-8-8-8-8-8-8-8-8-8-8-8-8-8-8\4-4-4-4-4-4-
D-x-x-x-x-x-x-x-x-x-x-x-x-x-x-x-x-x-x-x-x\x-x-x-x-x-x-
A-6-6-6-6-6-6-6-6-6-6-6-6-6-6-6-6-6-6-6-6\2-2-2-2-2-2-
E-7-7-7-7-7-7-7-7-7-7-7-7-7-7-7-7-7-7-7-7-------------

Honest this breaks my heart
e-----------------------------------------------------
B-----------------------------------------------------
G-8-8-8-8-8-8-8-8-8-8-8-8-8-8-8-8-8-8-8-8\4-4-4-4-4-4-
D-x-x-x-x-x-x-x-x-x-x-x-x-x-x-x-x-x-x-x-x\x-x-x-x-x-x-
A-6-6-6-6-6-6-6-6-6-6-6-6-6-6-6-6-6-6-6-6\2-2-2-2-2-2-
E-7-7-7-7-7-7-7-7-7-7-7-7-7-7-7-7-7-7-7-7-------------

 She's  un-stoppable  un-predictable   I'm   so   jaded 
e---------------------------------------------------
B---------------------------------------------------
G-------------------4-4-4-4-4-----------------------
D-2-2-2-2-2---------4-4-4-4-4---------6-6-6-6-6-----
A-2-2-2-2-2---------2-2-2-2-2---------6-6-6-6-6-----
E-0-0-0-0-0---------------------------4-4-4-4-4-----

 Cal-cu-la-ted Wrong            		(Riff D)
e----------------------------------------------------------
B----------------------------------------------------------
G--------------------------------------------3-3-3-3-3-3---
D-4-4-4-4-4-------2-2-2-2-2-2-2-2-2-2-2-2-2--3-3-3-3-3-3---
A-4-4-4-4-4-------2-2-2-2-2-2-2-2-2-2-2-2-2--1-1-1-1-1-1---
E-2-2-2-2-2-------0-0-0-0-0-0-0-0-0-0-0-0-0--------------2-

 (Playing in Backround of Riff D)         
e--------------------------------------------------------
B--------------------------------------------------------
G--------------------------------------------------------
D-4-4-4-4-4-------2-2-2-2-2-2-2-2-2-2-2-2-2--4-4-4-4-4-4-
A-4-4-4-4-4-------2-2-2-2-2-2-2-2-2-2-2-2-2--x-x-x-x-x-x-
E-2-2-2-2-2-------0-0-0-0-0-0-0-0-0-0-0-0-0--2-2-2-2-2-2-

(Chorus)
 Please      take      me       home     to      late   
e---------------------------------------------------------
B---------------------------------------------------------
G-4-4-4-4-4-4-4-4-----------------------------------------
D-4-4-4-4-4-4-4-4-4-4-4-4-4-4-4-4-6-6-6-6-6-6-6-6-2-2-2-2-
A-2-2-2-2-2-2-2-2-1-1-1-1-1-1-1-1-6-6-6-6-6-6-6-6-2-2-2-2-
E---------------------------------4-4-4-4-4-4-4-4-0-0-0-0-

 it's gone   I bet your    sad this is the best time we ever had
e-----------------------------------------------------------
B-----------------------------------------------------------
G---------4-4-4-4-4-4-4-4-----------------------------------
D-2-2-2-2-4-4-4-4-4-4-4-4-4-4-4-4-4-4-4-4-6-6-6-6-6-2-2-2-2-
A-2-2-2-2-2-2-2-2-2-2-2-2-1-1-1-1-1-1-1-1-6-6-6-6-6-2-2-2-2-
E-0-0-0-0---------------------------------4-4-4-4-4-0-0-0-0-

 Please      take      me       home     to      late   
e---------------------------------------------------------
B---------------------------------------------------------
G-4-4-4-4-4-4-4-4-----------------------------------------
D-4-4-4-4-4-4-4-4-4-4-4-4-4-4-4-4-6-6-6-6-6-6-6-6-2-2-2-2-
A-2-2-2-2-2-2-2-2-1-1-1-1-1-1-1-1-6-6-6-6-6-6-6-6-2-2-2-2-
E---------------------------------4-4-4-4-4-4-4-4-0-0-0-0-
						
 it's gone   I bet your    sad this is the best time we ever had
e-----------------------------------------------------------
B-----------------------------------------------------------
G---------4-4-4-4-4-4-4-4-----------------------------------
D-2-2-2-2-4-4-4-4-4-4-4-4-4-4-4-4-4-4-4-4-6-6-6-6-6-6-6-2-2-
A-2-2-2-2-2-2-2-2-2-2-2-2-1-1-1-1-1-1-1-1-6-6-6-6-6-6-6-2-2-
E-0-0-0-0---------------------------------4-4-4-4-4-4-4-0-0-
							
 (Riff E)
e-----------------------------------------------------
B-----------------------------------------------------
G-----------------------------------------------------
D-------------9--9--------------------9--9------------
A-9--9--7--7--6--6--7--7--9--9--7--7--6--6--7--7------
E-7--7--9--9--7--7--7--7--7--7--9--9--7--7--7--7------
 
 Why did we have to go date it's to easy to copmlicate
e-----------------------------------------------------
B-----------------------------------------------------
G-----------------------------------------------------
D-------------9--9--------------------9--9------------
A-9--9--7--7--6--6--7--7--9--9--7--7--6--6--7--7------
E-7--7--9--9--7--7--7--7--7--7--9--9--7--7--7--7------

Be strong when things fall apart
P.M........................................       ........
e---------------------------------------------------------
B---------------------------------------------------------
G---------------------------------------------------------
D-4-4-4-4-4-4-4-4-2-2-2-2-2-2-2-2-1-1-1-1-1-------1-1-1-1-
A-2-2-2-2-2-2-2-2-4-4-4-4-4-4-4-4-----------2-2-2---------
E---------------------------------------------------------

Honest  this  breaks  my  heart  (It's so Hard)  Let's go
P.M........................................       ........
e---------------------------------------------------------
B---------------------------------------------------------
G---------------------------------------------------------
D-4-4-4-4-4-4-4-4-2-2-2-2-2-2-2-2-1-1-1-1-1-------1-1-1-1-
A-2-2-2-2-2-2-2-2-4-4-4-4-4-4-4-4-----------2-2-2---------
E---------------------------------------------------------

                                          (Interlude)
e---------------------------------------------------------
B---------------------------------------------------------
G-4-4-4-4-4-4-4-4-3-3-3-3-3-3-3-3\8-8-8-8-8-8-8-8-6--4--6-
D-x-x-x-x-x-x-x-x-x-x-x-x-x-x-x-x-x-x-x-x-x-x-x-x-x--x--x-
A-2-2-2-2-2-2-2-2-1-1-1-1-1-1-1-1\6-6-6-6-6-6-6-6-4--2--4-
E---------------------------------------------------------


e-------------------------------------------------------
B-------------------------------------------------------
G-8-8-8-8-8-8-8-8-6-6-6-6-6-6-6\8-8-8-8-8-8-8-8-8-8\4-4-
D-x-x-x-x-x-x-x-x-x-x-x-x-x-x-x-x-x-x-x-x-x-x-x-x-x-x-x-
A-6-6-6-6-6-6-6-6-4-4-4-4-4-4-4\6-6-6-6-6-6-6-6-6-6\2-2-
E-------------------------------------------------------
				       P.M..............
e-------------------------------------------------------
B-------------------------------------------------------
G-4-4-4-4--(8)-8---8--8-8\4--4-4-4---4------------------
D-x-x-x-x--( )-x---x--x-x-x--x-x-x---x------------------
A-2-2-2-2--(6)-6---6--6-6\2--2-2-2---2--4-4-4-4-4-4-4-4-
E---------------------------------------2-2-2-2-2-2-2-2-
 P.M.............
e-------------------------------------------------------
B-------------------------------------------------------
G-------------------------------------------------------
D-------------------------------------------------------
A-4-4-4-4-4-4-4-4---------------------------------------
E-2-2-2-2-2-2-2-2---------------------------------------

Please   take    me    home    too   late,   it's   gone
e-------------------------------------------------------
B-------------------------------------------------------
G-4-4-4-4-4-4-4-4---------------------------------------
D-4-4-4-4-4-4-4-4-4-4-4-4-4-4-4-4-6-6-6-6-6-6-2-2-2-2-2-
A-2-2-2-2-2-2-2-2-1-1-1-1-1-1-1-1-6-6-6-6-6-6-2-2-2-2-2-
E---------------------------------4-4-4-4-4-4-0-0-0-0-0-

 I bet  your  sad  this  is  the  best time we ever had
e-------------------------------------------------------
B-------------------------------------------------------
G-4-4-4-4-4-4-4-4---------------------------------------
D-4-4-4-4-4-4-4-4-4-4-4-4-4-4-4-4-6-6-6-6-6-6-2-2-2-2-2-
A-2-2-2-2-2-2-2-2-1-1-1-1-1-1-1-1-6-6-6-6-6-6-2-2-2-2-2-
E---------------------------------4-4-4-4-4-4-0-0-0-0-0-


     Please  take   me    home  too   late,   it's  gone
e--------------------------------------------------------
B--------------------------------------------------------
G-8--8---8-8-8-8-8--8-8-8-8-8-8-8-8-8\4---4--4--4--4--4\-
D-x--x---x-x-x-x-x--x-x-x-x-x-x-x-x-x-x---x--x--x--x--x--
A-6--6---6-6-6-6-6--6-6-6-6-6-6-6-6-6\2---2--2--2--2--2\-
E--------------------------------------------------------

   I bet your sad. This is the best time we ever had.___
e-------------------------------------------------------
B-------------------------------------------------------
G-8--8--8--8-8-8-8-8-8--8--8-8-8-8-4--------------------
D-x--x--x--x-x-x-x-x-x--x--x-x-x-x-x--------------------
A-6--6--6--6-6-6-6-6-6--6--6-6-6-6-2--------------------
E-------------------------------------------------------

This is all from the tab book. That's it if you have any ouestions
or comments E-mail me at RWALBS@aol.com
comments
print report bad tab
3 comments total.
0 reply
lilbig tyma24 7 wrote on April 22 2002, 12:00 am

only one part of its wrong the "be strong wen things fall apart" the last 1's should be played un muted

0 reply
soalg wrote on April 27 2002, 12:00 am

This is really good!

0 reply
Kewl dude wrote on April 30 2002, 12:00 am

the reason this tab is so good is cuz the guy copied it right out of the book doesn't matter really though

I want to post or [tab]
guest
You may want to rate the tab now too:
select rating
Please do not post tabs as comments. Select "correction" instead!