Oops, an error
Loading. Please wait.

Please Take Me Home chords

version 4
version 4
292 views 1 this week
no commentswrite comment
1 2 3 4 5
1 last vote to show rating
add to favorites
×
Save as Personal and add changes to this tab that will be seen only by you. Learn more ›
×
You can save this tab as Personal to edit and correct it or add notes. All changes will be seen only by you. Learn more »
launch autoscroll
font size
0
reset
transpose
0
reset
simplify chords
display chords
guitar tuner
edit
Autoscroll
slow
fast
+/-
esc
set tempo
stop
Author
Strumming
There is no strumming pattern for this song yet. and get +5 IQ
Tabbed By: JimBlenderBR



- Intro :

|------|---------------------------------|-----------------------------------|
|------|---------------------------------|-----------------------------------|
|---3/-|-8-8-8-8-8-8-8-8-8-8-8-8-8-8-8-8-|-8-8-8-8-8-8-8-8\-4-4-4-4-4-4-4-4--|
|---x--|-x-x-x-x-x-x-x-x-x-x-x-x-x-x-x-x-|-x-x-x-x-x-x-x-x--x-x-x-x-x-x-x-x--|
|---1/-|-6-6-6-6-6-6-6-6-6-6-6-6-6-6-6-6-|-6-6-6-6-6-6-6-6\-2-2-2-2-2-2-2-2--|
|------|---------------------------------|-----------------------------------|

|---------------------------------|-----------------------------------|
|---------------------------------|-----------------------------------|
|-8-8-8-8-8-8-8-8-8-8-8-8-8-8-8-8-|-8-8-8-8-8-8-8-8\-4-4-4-4-4-4-4-4--|
|-x-x-x-x-x-x-x-x-x-x-x-x-x-x-x-x-|-x-x-x-x-x-x-x-x--x-x-x-x-x-x-x-x--|
|-6-6-6-6-6-6-6-6-6-6-6-6-6-6-6-6-|-6-6-6-6-6-6-6-6\-2-2-2-2-2-2-2-2--|
|---------------------------------|-----------------------------------|




- Verse 1:


B          C#m       G#m   E
Oh no it happend again,
B                 C#m              G#m   E
she's cool, she's hot, she's my friend
B             C#m       G#m   E
i'd drive for hours, its so
B            C#m       G#m   E
you leave me nowhere to go




- Pre-Chorus:

E                  B
She's unstopable, unpredictable
G#m           F#          E      A#  F#
I'm so jaded, calculated, wrong





- Chorus:

B            F/A#  G#m       E
Please take me home, too late, it's gone
B   F/A#       G#m            E
I bet you're sad, this is the best time we ever had





- Verse 2:

B          C#m         G#m   E
Buy hope, hope that it lasts,
B          C#m       G#m   E
give in, forget the past
B              C#m          G#m   E
Be strong when things fall apart,
B      C#m             G#m   E
honest this breaks my heart




- Pre-Chorus:

E                  B
She's unstopable, unpredictable
G#m           F#          E      A#  F#
I'm so jaded, calculated, wrong





- Chorus:

B            F/A#  G#m       E
Please take me home, too late, it's gone
B   F/A#       G#m            E
I bet you're sad, this is the best time we ever had
B            F/A#  G#m       E
Please take me home, too late, it's gone
B   F/A#       G#m            E
I bet you're sad, this is the best time we ever had




- Intrumental: B C#m D# E  x4




- Bridge:

B          C#m        D#    E
Why did we have to go date?
B            C#m        D#    E
It's too easy to complicate
B              C#m           D#                   E
Be strong when things fall apart (be strong when things fall apart)
B      C#m             D#             E
honest this breaks my heart (it's so hard)

Let's go!




- Intrumental: B A# G#m E  x3
               B A# G#m E  F#





- Chorus:

B            F/A#  G#m       E
Please take me home, too late, it's gone
B   F/A#       G#m            E
I bet you're sad, this is the best time we ever had
B            F/A#  G#m       E
Please take me home, too late, it's gone
B   F/A#       G#m            E
I bet you're sad, this is the best time we ever had



__________
Tabbed by: JimBlenderBR

            
            
Suggest correction
Creating personal tab
Creating personal tab
You can edit any tab online and save it as your Personal.

You can edit, replace or remove any tab part or add personal notes – all changes will be seen only by you.

Personal tabs can be accessed anytime from any device, even offline.
Learn more »
Give kudos to tab author, rate the tab!
1 2 3 4 5
comments
print report bad tab
guest
You may want to rate the tab now too:
select rating
Wanna post a correction for this tab? Suggest correction