Oops, an error
Loading. Please wait.

Pretty Little Girl Bass Tab

version 1
version 1

Whole song

Interactive

3,631 views 6 this week
no commentswrite comment
1 2 3 4 5
not so good
x 7
add to favorites
launch autoscroll
font size
0
reset
guitar tuner
Tab Pro tools
  • play this tab
  • loop segment
  • change instrument
  • show fretboard
  • metronome
Autoscroll
slow
fast
+/-
esc
set tempo
stop
Contributor
G |--------------------------------------------------------------|
D |--------------------------------------------------------------|
A |--------------------------------------------------------------|
E |---44-555555-4-555555---00-222222--0-222222-------------------|

G |--------------------------------------------------------------|
D |--------------------------------------------------------------|
A |--44-555555-4-555555------------------------------------------|
E |-------------------------------00-222222-0-222222-------------|

Prechorus

G |-------------------------------------------------------|
D |-------------------------------------------------------|
A |--444--555--000----------------------55-77-------------|
E |---------------------000--222--000---------------------|

Chorus

G |--------------------------------------------------------------------------|
D |--------------------------------------------------------------------------|
A |---000--555--------000--555--777--------------555-777--0------------------|
E |----------------000---------------------222-000---------------------------|

Bridge

G |----------------------------------------|
D |--------7--------7------7------7--------|
A |----00------77-----55----55-------------|
E |----------------------------------------|

G |----------------------------------------|
D |-----7-----7-----7-----7----------------|
A |-99---77----44---55---------------------|
E |----------------------------------------|
comments
print report bad tab
I want to post or [tab]
guest
You may want to rate the tab now too:
select rating
Please do not post tabs as comments. Select "correction" instead!