Oops, an error
Loading. Please wait.

Pretty Little Girl Bass Tab

version 2
version 2

Whole song

Interactive

8,923 views 21 this week
no commentswrite comment
1 2 3 4 5
excellent!
x 6
add to favorites
launch autoscroll
font size
0
reset
guitar tuner
Tab Pro tools
  • play this tab
  • loop segment
  • change instrument
  • show fretboard
  • metronome
Autoscroll
slow
fast
+/-
esc
set tempo
stop
Contributor
Difficulty
intermediate
Song: Pretty Little Girl
Album: Dogs Eating Dogs
Artist: Blink-182
Bassist: Mark Hoppus
Tuning: Standard

Verse
G|---------------------------------------------------------------------|
D|---------------------------------------------------------------------|
A|------------------------------------44h5555-4-5555-------------------| x2
E|-44-5555--4-5555--00h2222--0-2222------------------0-0h2222--0-2222--|

Pre-Chorus
G|--------------------------------------------------------------|
D|--------------------------------------------------------------|
A|-444444445555555500000000-------------------------------------|
E|-------------------------0000000022222222000000005555\12/1p0--|

Chorus
G|------------------------------------------------------|
D|------------------------------------------------------|
A|-00000000555577770000000055557777------------5557770--|
E|---------------------------------222222220000---------|

Pre-Verse
G|--------------------------------|
D|--------------------------------|
A|-4-5555--4-5555-----------------|
E|-----------------0-2222--0-2222-|

Verse (x1)\Pre-Chorus/Chorus x1

Bridge/Rap
G|----------------------------------------------------------------------------|
D|-7-7-7-7-7-7-7-7-7-7-7-7-7-7-7-7-7-7-7-7-7-7-7-7-7-7-7-7-7-7-7-7-0-3-6-6-7--|
A|--0-0-0-0-0-0-0-0-7-7-7-7-5-5-5-5-0-0-0-0-0-0-0-5-5-5-5-7-7-7-7-------------| x2
E|----------------------------------------------------------------------------|

G|------------------------------------------------------------------|
D|--7-7-7-7-7-7-7-7-7-7-7-7-7-7-7-7-7-7-7-7-7-7-7-7-7-7-7-7-7-7-7-7-|
A|-9-9-9-9-9-9-9-9-7-7-7-7-7-7-7-7-4-4-4-4-4-4-4-4-5-5-5-5-5-5-5-5--|
E|------------------------------------------------------------------|

Pre-Chorus\Chorus x1
comments
print report bad tab
I want to post or [tab]
guest
You may want to rate the tab now too:
select rating
Please do not post tabs as comments. Select "correction" instead!