Oops, an error
Loading. Please wait.
We have an official Rabbit Hole tab made by UG professional guitarists. Check out the tab »
×
1,232 views 1 this week
no commentswrite comment
1 2 3 4 5
2 more votes to show rating
add to favorites
×
Save as Personal and add changes to this tab that will be seen only by you. Learn more ›
×
You can save this tab as Personal to edit and correct it or add notes. All changes will be seen only by you. Learn more »
launch autoscroll
font size
0
reset
how to read this tab
guitar tuner
edit
Autoscroll
slow
fast
+/-
esc
set tempo
stop
Author
[Prechorus]

e|---------------------------------------------------------------------------|
B|---------------------------------------------------------------------------|
G|-7--7--7-9--5--5-5--5-5--5-5-5-----7--7--7-9--5--5-5--5-5--5-5-5-----------|
D|-7--7--7-9--5--5-5--5-5--5-5-5-----7--7--7-9--5--5-5--5-5--5-5-5-----------|
A|-5--5--5-7--3--3-3--3-3--3-3-3-----5--5--5-7--3--3-3--3-3--3-3-3-----------|
E|---------------------------------------------------------------------------|

e|---------------------------------------------------------------------------|
B|---------------------------------------------------------------------------|
G|-7--7--7-9--5--5-5--5-5--5-5-5------7-7-7-7-7-7-7-7-7-7-7-7----------------|
D|-7--7--7-9--5--5-5--5-5--5-5-5------7-7-7-7-7-7-7-7-7-7-7-7----------------|
A|-5--5--5-7--3--3-3--3-3--3-3-3------5-5-5-5-5-5-5-5-5-5-5-5----------------|
E|---------------------------------------------------------------------------|

[Chorus]

e|-------------------------------------------------------------------------------------------------|
B|-------------------------------------------------------------------------------------------------|
G|-12--12--12-12-12-12--10--10--10-10-10-10--9--9--9-9-9-9--9--9--9-9-9-9--9--9--9-9-9-9--7-7-7-7--|
D|-------------------------------------------------------------------------------------------------|
A|-10--10--10-10-10-10--8---8---8--8--8--8---7--7--7-7-7-7--7--7--7-7-7-7--7--7--7-7-7-7--5-5-5-5--|
E|-------------------------------------------------------------------------------------------------|

e|-----------------------------------------------------------------------------------------------------|
B|-----------------------------------------------------------------------------------------------------|
G|-12--12--12-12-12-12--10--10--10-10-10-10--9--9--9-9-9-9--9--9--9-9-9-9--9--9--9-9-9-9--14-14-14-14--|
D|-----------------------------------------------------------------------------------------------------|
A|-10--10--10-10-10-10--8---8---8--8--8--8---7--7--7-7-7-7--7--7--7-7-7-7--7--7--7-7-7-7--12-12-12-12--|
E|-----------------------------------------------------------------------------------------------------|

e|-------------------------------------------------------------------------------------------------|
B|-------------------------------------------------------------------------------------------------|
G|-12--12--12-12-12-12--10--10--10-10-10-10--9--9--9-9-9-9--9--9--9-9-9-9--9--9--9-9-9-9--7-7-7-7--|
D|-------------------------------------------------------------------------------------------------|
A|-10--10--10-10-10-10--8---8---8--8--8--8---7--7--7-7-7-7--7--7--7-7-7-7--7--7--7-7-7-7--5-5-5-5--|
E|-------------------------------------------------------------------------------------------------|

e|-------------------------------------------------------------------------------------------------|
B|-------------------------------------------------------------------------------------------------|
G|-12--12--12-12-12-12--10--10--10-10-10-10--9--9--9-9-9-9--9--9--9-9-9-9--9--9--9-9-9-9--7-7-7-7--|
D|-------------------------------------------------------------------------------------------------|
A|-10--10--10-10-10-10--8---8---8--8--8--8---7--7--7-7-7-7--7--7--7-7-7-7--7--7--7-7-7-7--5-5-5-5--|
E|-------------------------------------------------------------------------------------------------|

[Verse 2]

e|---------------------------------------------------------------------------|
B|---------------------------------------------------------------------------|
G|---------------------------------------------------------------------------|
D|-2-2-2-2-2-2-2-2-5-5-5-5-5-5-5-5--2-2-2-2-2-2-2-2-5-5-5-5-5-5-5-5-5-5------|
A|-2-2-2-2-2-2-2-2-5-5-5-5-5-5-5-5--2-2-2-2-2-2-2-2-5-5-5-5-5-5-5-5-5-5------|
E|-2-2-2-2-2-2-2-2-5-5-5-5-5-5-5-5--2-2-2-2-2-2-2-2-5-5-5-5-5-5-5-5-5-5------|

[Prechorus]

e|---------------------------------------------------------------------------|
B|---------------------------------------------------------------------------|
G|-7--7--7-9--5--5-5--5-5--5-5-5-----7--7--7-9--5--5-5--5-5--5-5-5-----------|
D|-7--7--7-9--5--5-5--5-5--5-5-5-----7--7--7-9--5--5-5--5-5--5-5-5-----------|
A|-5--5--5-7--3--3-3--3-3--3-3-3-----5--5--5-7--3--3-3--3-3--3-3-3-----------|
E|---------------------------------------------------------------------------|

e|---------------------------------------------------------------------------|
B|---------------------------------------------------------------------------|
G|-7--7--7-9--5--5-5--5-5--5-5-5------7-7-7-7-7-7-7-7-7-7-7-7----------------|
D|-7--7--7-9--5--5-5--5-5--5-5-5------7-7-7-7-7-7-7-7-7-7-7-7----------------|
A|-5--5--5-7--3--3-3--3-3--3-3-3------5-5-5-5-5-5-5-5-5-5-5-5----------------|
E|---------------------------------------------------------------------------|

[Chorus]

e|-------------------------------------------------------------------------------------------------|
B|-------------------------------------------------------------------------------------------------|
G|-12--12--12-12-12-12--10--10--10-10-10-10--9--9--9-9-9-9--9--9--9-9-9-9--9--9--9-9-9-9--7-7-7-7--|
D|-------------------------------------------------------------------------------------------------|
A|-10--10--10-10-10-10--8---8---8--8--8--8---7--7--7-7-7-7--7--7--7-7-7-7--7--7--7-7-7-7--5-5-5-5--|
E|-------------------------------------------------------------------------------------------------|

e|-----------------------------------------------------------------------------------------------------|
B|-----------------------------------------------------------------------------------------------------|
G|-12--12--12-12-12-12--10--10--10-10-10-10--9--9--9-9-9-9--9--9--9-9-9-9--9--9--9-9-9-9--14-14-14-14--|
D|-----------------------------------------------------------------------------------------------------|
A|-10--10--10-10-10-10--8---8---8--8--8--8---7--7--7-7-7-7--7--7--7-7-7-7--7--7--7-7-7-7--12-12-12-12--|
E|-----------------------------------------------------------------------------------------------------|

e|-------------------------------------------------------------------------------------------------|
B|-------------------------------------------------------------------------------------------------|
G|-12--12--12-12-12-12--10--10--10-10-10-10--9--9--9-9-9-9--9--9--9-9-9-9--9--9--9-9-9-9--7-7-7-7--|
D|-------------------------------------------------------------------------------------------------|
A|-10--10--10-10-10-10--8---8---8--8--8--8---7--7--7-7-7-7--7--7--7-7-7-7--7--7--7-7-7-7--5-5-5-5--|
E|-------------------------------------------------------------------------------------------------|

e|-------------------------------------------------------------------------------------------------|
B|-------------------------------------------------------------------------------------------------|
G|-12--12--12-12-12-12--10--10--10-10-10-10--9--9--9-9-9-9--9--9--9-9-9-9--9--9--9-9-9-9--7-7-7-7--|
D|-------------------------------------------------------------------------------------------------|
A|-10--10--10-10-10-10--8---8---8--8--8--8---7--7--7-7-7-7--7--7--7-7-7-7--7--7--7-7-7-7--5-5-5-5--|
E|-------------------------------------------------------------------------------------------------|

[Bridge]

e|---------------------------------------------------------------------------|
B|---------------------------------------------------------------------------|
G|-9--9-9-9-9-9-9-9--5--5-5-5-5-5-5-5--9--9-9-9-9-9-9-9-9--5--5-5-5-5-5-5-5--|
D|-9--9-9-9-9-9-9-9--5--5-5-5-5-5-5-5--9--9-9-9-9-9-9-9-9--5--5-5-5-5-5-5-5--|
A|-7--7-7-7-7-7-7-7--3--3-3-3-3-3-3-3--7--7-7-7-7-7-7-7-7--3--3-3-3-3-3-3-3--|
E|---------------------------------------------------------------------------|

e|---------------------------------------------------------------------------|
B|---------------------------------------------------------------------------|
G|-12---------5---------12--------5-5-5-5--7-7-7-7---------------------------|
D|---------------------------------------------------------------------------|
A|-10---------3---------10--------3-3-3-3--5-5-5-5---------------------------|
E|---------------------------------------------------------------------------|


[Chorus]

e|-------------------------------------------------------------------------------------------------|
B|-------------------------------------------------------------------------------------------------|
G|-12--12--12-12-12-12--10--10--10-10-10-10--9--9--9-9-9-9--9--9--9-9-9-9--9--9--9-9-9-9--7-7-7-7--|
D|-------------------------------------------------------------------------------------------------|
A|-10--10--10-10-10-10--8---8---8--8--8--8---7--7--7-7-7-7--7--7--7-7-7-7--7--7--7-7-7-7--5-5-5-5--|
E|-------------------------------------------------------------------------------------------------|

e|-----------------------------------------------------------------------------------------------------|
B|-----------------------------------------------------------------------------------------------------|
G|-12--12--12-12-12-12--10--10--10-10-10-10--9--9--9-9-9-9--9--9--9-9-9-9--9--9--9-9-9-9--14-14-14-14--|
D|-----------------------------------------------------------------------------------------------------|
A|-10--10--10-10-10-10--8---8---8--8--8--8---7--7--7-7-7-7--7--7--7-7-7-7--7--7--7-7-7-7--12-12-12-12--|
E|-----------------------------------------------------------------------------------------------------|

e|-------------------------------------------------------------------------------------------------|
B|-------------------------------------------------------------------------------------------------|
G|-12--12--12-12-12-12--10--10--10-10-10-10--9--9--9-9-9-9--9--9--9-9-9-9--9--9--9-9-9-9--7-7-7-7--|
D|-------------------------------------------------------------------------------------------------|
A|-10--10--10-10-10-10--8---8---8--8--8--8---7--7--7-7-7-7--7--7--7-7-7-7--7--7--7-7-7-7--5-5-5-5--|
E|-------------------------------------------------------------------------------------------------|

e|-------------------------------------------------------------------------------------------------|
B|-------------------------------------------------------------------------------------------------|
G|-12--12--12-12-12-12--10--10--10-10-10-10--9--9--9-9-9-9--9--9--9-9-9-9--9--9--9-9-9-9--7-7-7-7--|
D|-------------------------------------------------------------------------------------------------|
A|-10--10--10-10-10-10--8---8---8--8--8--8---7--7--7-7-7-7--7--7--7-7-7-7--7--7--7-7-7-7--5-5-5-5--|
E|-------------------------------------------------------------------------------------------------|

************************************

| x   Dead note
| g   Grace note
| (n) Ghost note
| h   Hammer-on
| p   Pull-off
| r   Release
| >   Accented note
| t   Tapping
| b   Bend
| br  Bend release
| pb  Pre-bend
| pbr Pre-bend release
| /   Slide up
| \   Slide down
| ~   Vibrato
| s   Slap
| P   Pop
| PM  Palm mute
| TR  Trill
| N   Tremolo

************************************
Suggest correction
Creating personal tab
Creating personal tab
You can edit any tab online and save it as your Personal.

You can edit, replace or remove any tab part or add personal notes – all changes will be seen only by you.

Personal tabs can be accessed anytime from any device, even offline.
Learn more »
Give kudos to tab author, rate the tab!
1 2 3 4 5
comments
print report bad tab
guest
You may want to rate the tab now too:
select rating
Wanna post a correction for this tab? Suggest correction