Oops, an error
Loading. Please wait.

Reckless Abandon Tab

version 2
version 2

Solo

Whole song

Video

10,936 views 6 this week
9 commentsread comments
1 2 3 4 5
accurate
x 18
add to favorites
launch autoscroll
font size
0
reset
how to read this tab
guitar tuner
Tab Pro tools
  • play this tab
  • loop segment
  • change instrument
  • show fretboard
  • metronome
×
Best way to learn
"Reckless Abandon"
Autoscroll
slow
fast
+/-
esc
set tempo
stop
Contributor
Artist: Blink 182
Song  : Reckless Abandon 
Album : Take of your Pants and Jacket
Tabbed by : Herland
 Clean:
e--------------------------------------------
b--------------------------------------------
g-4-4-444--4-4-444--4-4-444--4-4-444---------
d-4-4-444--4-4-444--4-4-444--4-4-444---------
a-2-2-222--2-2-222--2-2-222--2-2-222---------
e--------------------------------------------
 On and on reckless abandon
e--------------------------------------------
b--------------------------------------------
g--------------------------------------------
d-2-2-222--2-2-222--2-2-222--2-2-222---------
a-2-2-222--2-2-222--2-2-222--2-2-222---------
e-0-0-000--0-0-000--0-0-000--0-0-000---------
  Somethin's wrong this is gonna shock them
e-------------------------------------------------------
b-------------------------------------------------------
g-------------------------------------------------------
d-6-6-666--6-6-666--4-4-444--4-4-444--2-2-222--2-2-222-2
a-6-6-666--6-6-666--4-4-444--4-4-444--2-2-222--2-2-222-2
e-4-4-444--4-4-444--2-2-222--2-2-222--0-0-000--0-0-000-0
  Nothin' to hold on to we use this song to lead you on

Rhy.fig.1
Distorted:
e-------------------------------------------------------
b-------------------------------------------------------
g---------------------------------------------------(2x)
d-1---4---2---1---4---2---1---4---2---1---1---2---------
a---2-----------2-----------2-----------2---------4-----
e-------------------------------------------------------
                 (clean)
e---         B5  I learned a lot today, 
b---             I'm not sure if I'll get laid and
g-4-         F#5 I'm not sure if I'll fail or pass
d-4- let ring    Kissed every girl in class
a-2-
e---
             B5  Everybody would waste it all
                 To have a summer that they could call
             F#5 A memory that's full of fun
                 Fucked up when it's all done
 Chorus: (distorted)
e------------------------------------------------------
b------------------------------------------------------
g-4-4-444--4-4-444--4-4-444--4-4-444-------------------
d-4-4-444--4-4-444--4-4-444--4-4-444-------------------
a-2-2-222--2-2-222--2-2-222--2-2-222-------------------
e------------------------------------------------------
    On and on reckless abandon

e------------------------------------------------------
b------------------------------------------------------
g------------------------------------------------------
d-2-2-222--2-2-222--2-2-222--2-2-222-------------------
a-2-2-222--2-2-222--2-2-222--2-2-222-------------------
e-0-0-000--0-0-000--0-0-000--0-0-000-------------------
    Something's wrong this is gonna shock them

e------------------------------------------------------
b------------------------------------------------------
g------------------------------------------------------
d-6-6-666--6-6-666--4-4-444--4-4-444-------------------
a-6-6-666--6-6-666--4-4-444--4-4-444-------------------
e-4-4-444--4-4-444--2-2-222--2-2-222-------------------
    Nothin' to      hold on to

e------------------------------------------------------
b------------------------------------------------------
g------------------------------------------------------
d-2-2-222--2-2-222--2-2-222--2-2-222-------------------
a-2-2-222--2-2-222--2-2-222--2-2-222-------------------
e-0-0-000--0-0-000--0-0-000--0-0-000-------------------
    We use this song to lead you on

e------------------------------------------------------
b------------------------------------------------------
g------------------------------------------------------
d-6-6-666--6-6-666----4-4-444--4-4-444-----------------
a-6-6-666--6-6-666----4-4-444--4-4-444-----------------
e-4-4-444--4-4-444----2-2-222--2-2-222-----------------
  And break the truth with more bad news

     d-2-
     a-2- let ring
     e-0-
  We left a scar size extra large

Rhy.fig.1
                                                            e---                 (clean)
b---              B5  Sip a drink of the alcohol
g-4-                  End up kneeling in bathroomstalls
d-4- let ring     F#5 Eyes are red and my movement's slow
a-2-                  To high got vertigo  
e---
      
                  B5  He took a shit in the bathroomtub 
                      And fed the dog the brownie drugs
                  F#5 Tried hard to not get caught
                      He fucked a chick in the parkinglot
 
Chorus

Interlude: (clean)
e------------------------------------------------------
b------------------------------------------------------
g-4-----------4-----------4-----------4-----------4----
d-4--2--6--4--4--2--6--4--4--2--6--4--4--2--6--4--4----
a-2--2--6--4--2--2--6--4--2--2--6--4--2--2--6--4--2----
e----0--4--2-----0--4--2-----0--4--2-----0--4--2-------

 (clean)
e------------------------------------------------------
b------------------------------------------------------
g-4444444444444444444444444444444444444444-------------
d-4444444444444444444444444444444444444444-------------
a-2222222222222222222222222222222222222222-------------
e------------------------------------------------------
  Break a window and bust a wall
  Making fun of your friends mom

e------------------------------------------------------
b------------------------------------------------------
g------------------------------------------------------
d-4444444444444444444444444444444444444444-------------
a-4444444444444444444444444444444444444444-------------
e-2222222222222222222222222222222222222222-------------
  Turn the music up way to loud 
  charge the pizza to the house

e------------------------------------------------------
b------------------------------------------------------
g-4444444444444444444444444444444444444444-------------
d-4444444444444444444444444444444444444444-------------
a-2222222222222222222222222222222222222222-------------
e------------------------------------------------------
   Everybody would waste it all 
   To have a summer that they could call      

e------------------------------------------------------
b------------------------------------------------------
g------------------------------------------------------
d-44444444444444444444---------------------------------
a-44444444444444444444---------------------------------
e-22222222222222222222---------------------------------   
    A memory that's full of fun  
    Fucked up when it's all done

Chorus                          g-4-   
This time it ends on:           d-4-    
We left a scar size extra large a-2-
comments
print report bad tab
9 comments total. Showing first comments.
0 reply
redwing_suck wrote on May 3 2002, 12:00 am

this tab kicks ASS!!!!! i saw the version from the book and its makes it real hard to play (some ay bar chords) this sounds dbetter and its easier to play!!!!!! awesome dude

-1 reply
jote wrote on July 3 2002, 12:00 am

it sucks, it doesn't sound good, when you want to tab a song, tab it from the book, because blink 182 fuckin rulez and don't mess this band up by playing songs easyer: you're gay if you can't play bar chords loser

-1 reply
jote wrote on July 3 2002, 12:00 am

how the fuck can you rate this shit????

I want to post or [tab]
guest
You may want to rate the tab now too:
select rating
Please do not post tabs as comments. Select "correction" instead!