Oops, an error
Loading. Please wait.

Reckless Abandon Bass Tab

version 3
version 3
3,765 views 1 this week
no commentswrite comment
1 2 3 4 5
please rate
add to favorites
launch autoscroll
font size
0
reset
guitar tuner
Tab Pro tools
  • play this tab
  • loop segment
  • change instrument
  • show fretboard
  • metronome
×
Best way to learn
"Reckless Abandon"
Autoscroll
slow
fast
+/-
esc
set tempo
stop
Contributor
Difficulty
novice
Intro: (Wait for drums)
G|------------------------------------|
D|--------22222222-66666666-44444444--|
A|-2222222----------------------------| x4
E|------------------------------------| 

Verse:
G|------------------------------------|
D|-----------------4444444444444444---|
A|-222222222222222--------------------| x2
E|------------------------------------|

Chorus:
G|---------------------------------------------------------|
D|--------------------222022202220222-44-66666666-44444444-|
A|-222022202220222-44--------------------------------------|
E|---------------------------------------------------------|

G|---------------------------------------------------------|
D|-222222222222222-66666666-44444444-2~--------------------|
A|---------------------------------------------------------|
E|---------------------------------------------------------|

Intro:
G|------------------------------------|
D|--------22222222-66666666-44444444--|
A|-2222222----------------------------| x4
E|------------------------------------|

Verse:
G|------------------------------------|
D|-----------------4444444444444444---|
A|-222222222222222--------------------| x2
E|------------------------------------|

Chorus:
G|---------------------------------------------------------|
D|--------------------222022202220222-44-66666666-44444444-|
A|-222022202220222-44--------------------------------------|
E|---------------------------------------------------------|

G|---------------------------------------------------------|
D|-222222222222222-66666666-44444444-2~--------------------|
A|---------------------------------------------------------|
E|---------------------------------------------------------|


Bridge:
G|-------------------------------------|
D|----2~-6~-4~-------------------------|
A|-2~----------------------------------| x4
E|-------------------------------------|

G|-------------------------------------|
D|-------------------------------------|
A|-2~----------------------------------| x1
E|-------------------------------------|

(Guitar bit only)

Chorus:
G|---------------------------------------------------------|
D|--------------------222022202220222-44-66666666-44444444-|
A|-222022202220222-44--------------------------------------|
E|---------------------------------------------------------|

G|---------------------------------------------------------|
D|-222222222222222-66666666-44444444-2~--------------------|
A|---------------------------------------------------------|
E|---------------------------------------------------------|


G|-------------------------------------|
D|-------------------------------------|
A|-2~----------------------------------| 
E|-------------------------------------|

comments
We did not receive enough feedback on this tab! Please rate:
print report bad tab
1 2 3 4 5
I want to post or [tab]
guest
You may want to rate the tab now too:
select rating
Please do not post tabs as comments. Select "correction" instead!