Oops, an error
Loading. Please wait.

Red Skies Tab

version 2
version 2

Whole song

295 views 1 this week
3 commentsread comments
1 2 3 4 5
please rate
add to favorites
launch autoscroll
font size
0
reset
how to read this tab
guitar tuner
Tab Pro tools
  • play this tab
  • loop segment
  • change instrument
  • show fretboard
  • metronome
×
Best way to learn
"Red Skies"
Autoscroll
slow
fast
+/-
esc
set tempo
stop
Contributor
Blink 182 - Red Skies

Album: Flyswatter (Demo)

Tabbed by: sirpatrick3  

Tuning: Standard

e|-------------------------------------------------|
B|-------------------------------------------------|
G|-------------------------------------------------|
D|----2--r-----1--1-----2-----2-----4--------------|
A|-------------------------------------2-----------|
E|-0--------0--------0-----0-----0-----------------|
                                          
e|-------------------------------------------------|
B|-------------------------------------------------|
G|-------------------------------------------------|
D|----2--r--------1--r--------2--r-----2-----2--1--|
A|-------------------------------------------------|
E|-0--------0--0--------0--0--------0-----0--------|

e|---------------------------------------|
B|---------------------------------------|
G|---------------------------------------|
D|----2-------1--1-----2-----2-----4-----|
A|------------------------------------2--|
E|-0-----0--0-------0-----0-----0--------|

e|----------------------------------------|
B|----------------------------------------|
G|----------------------------------------|
D|----2--------1--------2-----2-----2--1--|
A|----------------------------------------|
E|-0-----0--0-----0--0-----0-----0--------|

e|-------------------------------------------|
B|-------------------------------------------|
G|-------------------------------------------|
D|----2--------1--------2--------2-----2--1--|
A|-------------------------------------------|
E|-0-----0--0-----0--0-----0--0-----0--------|
                                               x2
e|-------------------------------------------|
B|-------------------------------------------|
G|-------------------------------------------|
D|----2--------1--------2--------2-----4-----|
A|----------------------------------------2--|
E|-0-----0--0-----0--0-----0--0-----0--------|

e|--------------------------------------------|
B|--------------------------------------------|
G|--------------------------------------------|
D|----2--------2--------2--------2-----7---6--| x3
A|--------------------------------------------|
E|-0-----0--0-----0--0-----0--0-----0---------|

e|----------------------------0-----------|
B|----------------------------------------|
G|----------------------------------------|
D|----2--------1--1-----2-----------7--6--|
A|----------------------------------------|
E|-0-----0--0--------0-----0-----0--------|

e|-----------------------------|
B|-----------------------------|
G|-----------------------------|
D|-2----7----2----9----7----5--| x2
A|-2----7----2----9----7----5--|
E|-0----5----0----7----5----3--|

e|--------------------|
B|--------------------|
G|--------------------|
D|-5----9----7----10--| x3
A|-5----9----7----10--|
E|-3----7----5-----8--|

e|------------------------|
B|------------------------|
G|------------------------|
D|-5----9----7----10--x\--| 
A|-5----9----7----10--x\--|
E|-3----7----5-----8--x\--|

e|-------------------------------------------------------------|
B|-------------------------------------------------------------|
G|-------------------------------------------------------------|
D|-------------------------------------------------------------| x2
A|-------------------------------------------------------------|
E|-0--r--0--0--0--4--0--5--0--7--r--7--7--0--0--5--0--4--0--2--|

e|-------------------------------------------------------------|
B|-------------------------------------------------------------|
G|-------------------------------------------------------------|
D|-2--2--2--x--2--2--2--2--2--2--7--7--7--x--7--7--7--7--7--7--| 
A|-2--2--2--x--2--2--2--2--2--2--7--7--7--x--7--7--7--7--7--7--|
E|-0--0--0--x--0--0--0--0--0--0--5--5--5--x--5--5--5--5--5--5--|
                                               
e|------------------------------------|        
B|------------------------------------|        
G|------------------------------------|        
D|-2--2--2--x--2--2--2--2--2---8---8--|        
A|-2--2--2--x--2--2--2--2--2--10--10--| 
E|-0--0--0--x--0--0--0--0--0--10--10--|        
                                               
e|-------------------------------|             
B|-------------------------------|             
G|-------------------------------|             
D|-7--7--7--x--7--7--7--7--6--6--| 
A|-7--7--7--x--7--7--7--7--6--6--|
E|-5--5--5--x--5--5--5--5--4--4--|

e|-------------------------------------------------------------|
B|-------------------------------------------------------------|
G|-------------------------------------------------------------|
D|-2--2--2--x--2--2--2--2--2--2--7--7--7--x--7--7--7--7--7--7--| 
A|-2--2--2--x--2--2--2--2--2--2--7--7--7--x--7--7--7--7--7--7--|
E|-0--0--0--x--0--0--0--0--0--0--5--5--5--x--5--5--5--5--5--5--|
                                               
e|------------------------------------|        
B|------------------------------------|        
G|------------------------------------|        
D|-2--2--2--x--2--2--2--2--2---8---8--|        
A|-2--2--2--x--2--2--2--2--2--10--10--| 
E|-0--0--0--x--0--0--0--0--0--10--10--|        
                                               
e|-------------------------------|             
B|-------------------------------|             
G|-------------------------------|             
D|-7--7--7--x--7--7--7--7--6--6--| 
A|-7--7--7--x--7--7--7--7--6--6--|
E|-5--5--5--x--5--5--5--5--4--4--|

e|------------------------------------------------------------|
B|------------------------------------------------------------|
G|------------------------------------------------------------|
D|-5--5--5--5--9--9--9--9--9--7--7--7--7--10--10--10--10--10--| x2
A|-5--5--5--5--9--9--9--9--9--7--7--7--7--10--10--10--10--10--|
E|-3--3--3--3--7--7--7--7--7--5--5--5--5---8---8---8---8---8--|

e|-------------------------------------------------------------|
B|-------------------------------------------------------------|
G|-------------------------------------------------------------|
D|-2--2--2--x--2--2--2--2--2--2--7--7--7--x--7--7--7--7--7--7--| 
A|-2--2--2--x--2--2--2--2--2--2--7--7--7--x--7--7--7--7--7--7--|
E|-0--0--0--x--0--0--0--0--0--0--5--5--5--x--5--5--5--5--5--5--|
                                               
e|------------------------------------|        
B|------------------------------------|        
G|------------------------------------|        
D|-2--2--2--x--2--2--2--2--2---8---8--|        
A|-2--2--2--x--2--2--2--2--2--10--10--| 
E|-0--0--0--x--0--0--0--0--0--10--10--|        
                                               
e|-------------------------------|             
B|-------------------------------|             
G|-------------------------------|             
D|-7--7--7--x--7--7--7--7--6--6--| 
A|-7--7--7--x--7--7--7--7--6--6--|
E|-5--5--5--x--5--5--5--5--4--4--|

e|-------------------------------------------------------------|
B|-------------------------------------------------------------|
G|-------------------------------------------------------------|
D|-2--2--2--x--2--2--2--2--2--2--7--7--7--x--7--7--7--7--7--7--| 
A|-2--2--2--x--2--2--2--2--2--2--7--7--7--x--7--7--7--7--7--7--|
E|-0--0--0--x--0--0--0--0--0--0--5--5--5--x--5--5--5--5--5--5--|
                                               
e|------------------------------------|        
B|------------------------------------|        
G|------------------------------------|        
D|-2--2--2--x--2--2--2--2--2---8---8--|        
A|-2--2--2--x--2--2--2--2--2--10--10--| 
E|-0--0--0--x--0--0--0--0--0--10--10--|        
                                               
e|-------------------------------|             
B|-------------------------------|             
G|-------------------------------|             
D|-7--7--7--x--7--7--7--7--6--6--| 
A|-7--7--7--x--7--7--7--7--6--6--|
E|-5--5--5--x--5--5--5--5--4--4--|

e|-------------------------------------------------------|
B|-------------------------------------------------------|
G|-------------------------------------------------------|
D|-5--5--5--5--9--9--9--9--9--7--7--7--7--10--10/9--7/9--|
A|-5--5--5--5--9--9--9--9--9--7--7--7--7--10--10/9--7/9--|
E|-3--3--3--3--7--7--7--7--7--5--5--5--5---8---8/7--5/7--|

e|------------------------------------------------------------|
B|------------------------------------------------------------|
G|------------------------------------------------------------|
D|-5--5--5--5--9--9--9--9--9--7--7--7--7--10--10--10--10--10--| 
A|-5--5--5--5--9--9--9--9--9--7--7--7--7--10--10--10--10--10--|
E|-3--3--3--3--7--7--7--7--7--5--5--5--5---8---8---8---8---8--|

e|------------------------------------------------------|
B|------------------------------------------------------|
G|------------------------------------------------------|
D|-5--5--5--5--9--9--9--9--9--7--7--7--7/10--10/9--7/9--|
A|-5--5--5--5--9--9--9--9--9--7--7--7--7/10--10/9--7/9--|
E|-3--3--3--3--7--7--7--7--7--5--5--5--5/-8---8/7--5/7--|

e|------|
B|------|
G|------|
D|-(2)--|
A|-(2)--|
E|-(0)--|
comments
We did not receive enough feedback on this tab! Please rate:
print report bad tab
1 2 3 4 5
3 comments total.
-1 reply
djmay71 wrote on September 18 2007, 08:19 am

how come i've never haerd of this blink song before? i have all the CDs (well, minus The Mark, Tom, And Travis Show).

-1 reply
sugarland24 wrote on September 18 2007, 12:35 pm

i don't know this song either... its not on the TMTATS either... nor any of their other albums... or even on any demo song i heard of them, this must be a mistake.

-1 reply
Obder wrote on December 29 2009, 09:11 am

It's on their first ever demo Flyswatter. You n00bs. You must only listen to their mainstream pop stuff.

I want to post or [tab]
guest
You may want to rate the tab now too:
select rating
Please do not post tabs as comments. Select "correction" instead!