Oops, an error
Loading. Please wait.
We have an official Rock Show tab made by UG professional guitarists. Check out the tab »
×
106,982 views 117 this week
6 commentsread comments
1 2 3 4 5
x 42
add to favorites
×
Save as Personal and add changes to this tab that will be seen only by you. Learn more ›
×
You can save this tab as Personal to edit and correct it or add notes. All changes will be seen only by you. Learn more »
launch autoscroll
font size
0
reset
guitar tuner
edit
Autoscroll
slow
fast
+/-
esc
set tempo
stop
Author
Unregistered
Blink-182
"The Rock Show"


[Intro]

G|----------------------------------------------------------------------|
D|----------------------------------------------------------------------|
A|---------------------------------5-5-5-5-5-5-5-5-7-7-7-7-7-7-7-7------| (x2)
E|-5-5-5-5-5-5-5-5-5-5-5-5-5-5-5-5--------------------------------------|

G|---------------------------------|
D|---------------------------------|
A|---------------------------------|
E|-5-5-5-5-5-5-5-5-5-5-5-5-5-5-5-5-|


[Verse]

G|----------------------------------------------------------------------|
D|----------------------------------------------------------------------|
A|---------------------------------5-5-5-5-5-5-5-5-7-7-7-7-7-7-7-7------| (x2)
E|-5-5-5-5-5-5-5-5-5-5-5-5-5-5-5-5--------------------------------------|


[CHORUS] ("I fell in love with a girl at the rock show")

G|-----------------|
D|-----------------|
A|-------------5---| (x3)
E|--5-5-5---2------|

G|---------------------------------------------------------------------|
D|---------------------------------------------------------------------|
A|--7-7-7-7-7-7-7-7-5-5-5-5-5-5-5-5-7-7-7-7-7-7-7-7-5-5-5-5-5-5-5-5----|
E|---------------------------------------------------------------------|

G|--------------------------|
D|--------------------------|
A|--7-7-7-7-7-7-7-7--5---4--|
E|--------------------------|


[Verse]

G|----------------------------------------------------------------------|
D|----------------------------------------------------------------------|
A|---------------------------------5-5-5-5-5-5-5-5-7-7-7-7-7-7-7-7------| (x2)
E|-5-5-5-5-5-5-5-5-5-5-5-5-5-5-5-5--------------------------------------|


 [BREAK] (again, I'm not too sure on this, but I think it
          sounds OK)
G|-------------------------------------------------------------------------|
D|-------------------------------------------------------------------------|
A|-9-9-9-9-9-9-9--7--5-5-5-5-5-5--4-------------------4-5-7-7-7-7-7-7-7-7--| (x2)
E|----------------------------------7--5-5-5-5-5-5--7----------------------|


[CHORUS] ("I fell in love with a girl at the rock show")

G|-----------------|
D|-----------------|
A|-------------5---| (x3)
E|--5-5-5---2------|

G|-----------------------------------------------------------------------|
D|-----------------------------------------------------------------------|
A|--7-7--7-7--7-7-7-7-5-5-5-5-5-5-5-5-7-7-7-7-7-7-7-7-5-5-5-5-5-5-5-5----|
E|-----------------------------------------------------------------------|

G|--------------------------|
D|--------------------------|
A|--7-7-7-7-7-7-7-7--5---4--|
E|--------------------------|


[Verse]

G|----------------------------------------------------------------------|
D|----------------------------------------------------------------------|
A|---------------------------------5-5-5-5-5-5-5-5-7-7-7-7-7-7-7-7------| (x2)
E|-5-5-5-5-5-5-5-5-5-5-5-5-5-5-5-5--------------------------------------|

            
            
Suggest correction
Creating personal tab
Creating personal tab
You can edit any tab online and save it as your Personal.

You can edit, replace or remove any tab part or add personal notes – all changes will be seen only by you.

Personal tabs can be accessed anytime from any device, even offline.
Learn more »
comments
print report bad tab
6 comments total. Showing first comments.
+2 reply
Mark1412 10 Aug 25, 2006 03:37 AM

G--------------------------------------------------|
D--------------------------------------------------|
A-9999999--7--555555-75-4--------------4-5-77777777--| (x2)
E---------------------- -7--555555-----------------|

+1 reply
sk8rpunk9 10 Jun 30, 2007 09:25 PM

a five star tab the bridge seems about right 2 me

+4 reply
Hoogevost 10 Nov 18, 2007 02:48 AM

great

guest
Wanna post a correction for this tab? Suggest correction