Oops, an error
Loading. Please wait.

Rock Show Bass Tab

version 1
version 1

Whole song

Interactive

98,051 views 120 this week
6 commentsread comments
1 2 3 4 5
excellent!
x 34
add to favorites
launch autoscroll
font size
0
reset
guitar tuner
Tab Pro tools
  • play this tab
  • loop segment
  • change instrument
  • show fretboard
  • metronome
×
Best way to learn
"Rock Show"
Autoscroll
slow
fast
+/-
esc
set tempo
stop
Blink-182
"The Rock Show"


INTRO
G-----------------------------------------|
D-----------------------------------------|
A------------------55555555-77777777------| (x2)
E-5555555555555555------------------------|

G------------------|
D------------------|
A------------------|
E-5555555555555555-|

VERSE
G-----------------------------------------|
D-----------------------------------------|
A------------------55555555-77777777------| (x2)
E-5555555555555555------------------------|

Play VERSE riff (x2) (no lyrics)

VERSE

CHORUS ("I fell in love with a girl at the rock show")
G-----------------|
D-----------------|
A-------------5---| (x3)
E--5-5-5---2------|

G-----------------------------------------|
D-----------------------------------------|
A--77777777-55555555-77777777-55555555----|
E-----------------------------------------|

G-------------------|
D-------------------|
A--77777777--5---4--|
E-------------------|

Play VERSE riff (x2) (no lyrics)

VERSE

CHORUS

BREAK (again, I'm not too sure on this, but I think it
       sounds OK)
G--------------------------------------------------|
D--------------------------------------------------|
A-9999999--7--555555--4--------------4-5-77777777--| (x2)
E-----------------------7--555555--7---------------|

CHORUS

Play VERSE riff until END and fade out
comments
print report bad tab
6 comments total. Showing first comments. show 1 bad comment
+2 reply
Mark1412 wrote on August 25 2006, 07:37 am

G--------------------------------------------------|
D--------------------------------------------------|
A-9999999--7--555555-75-4--------------4-5-77777777--| (x2)
E---------------------- -7--555555-----------------|

+2 reply
sk8rpunk9 wrote on July 1 2007, 01:25 am

a five star tab the bridge seems about right 2 me

I want to post or [tab]
guest
You may want to rate the tab now too:
select rating
Please do not post tabs as comments. Select "correction" instead!