Oops, an error
Loading. Please wait.

Rock Show Live Bass Tab

version 1
version 1

Whole song

Interactive

1,574 views 1 this week
no commentswrite comment
1 2 3 4 5
please rate
add to favorites
launch autoscroll
font size
0
reset
guitar tuner
Tab Pro tools
  • play this tab
  • loop segment
  • change instrument
  • show fretboard
  • metronome
Autoscroll
slow
fast
+/-
esc
set tempo
stop
Here's my first tab for The Rock Show Live. I heard it when they played this in Kroq
I know it's pretty close to the cd version but it's my first tab and i only play bass 
4 months.

Intro x2


G:-------------------------------------------------:
D:-------------------------------------------------:
A:------------55555555-77777777--------------------:
E:555555555555-------------------------------------:

after Intro

G:-------------------------------------------------:
D:-------------------------------------------------:
A:-------------------------------------------------:
E:555555555555-------------------------------------:

Verse x2

G:-------------------------------------------------:
D:-------------------------------------------------:
A:------------55555555-77777777--------------------:
E:555555555555-------------------------------------:


Intro x2

G:-------------------------------------------------:
D:-------------------------------------------------:
A:------------55555555-77777777--------------------:
E:555555555555-------------------------------------:


Verse x2

G:-------------------------------------------------:
D:-------------------------------------------------:
A:------------55555555-77777777--------------------:
E:555555555555-------------------------------------:

Chourus x3

G:-------------------------------------------------:
D:-------------------------------------------------:
A:----------------5--------------------------------:
E:5---5---5---2------------------------------------:

After Chourus x3             after 3rd time

G:------------------------|-------------------------:
D:------------------------|-------------------------:
A:77777777-55555555-------|5-4----------------------:
E:------------------------|-------------------------:

Intro x2

G:-------------------------------------------------:
D:-------------------------------------------------:
A:------------55555555-77777777--------------------:
E:555555555555-------------------------------------:


Verse x2

G:-------------------------------------------------:
D:-------------------------------------------------:
A:------------55555555-77777777--------------------:
E:555555555555-------------------------------------:


Chourus x3

G:-------------------------------------------------:
D:-------------------------------------------------:
A:----------------5--------------------------------:
E:5---5---5---2------------------------------------:

After Chourus x3             after 3rd time

G:------------------------|-------------------------:
D:------------------------|-------------------------:
A:77777777-55555555-------|5-4----------------------:
E:------------------------|-------------------------:

Bridge The quiet part 2x

G:--------------------------------------------------:
D:--------------------------------------------------:
A:9-9-9-9-7-5-5-5-5-4---------5-7-7-7-7-------------:
E:--------------------5-5-5-5-----------------------:

then

G:--------------------------------------------------:
D:--------------------------------------------------:
A:99999999-7-55555555-4----------5-7~~~~~~~---------:
E:----------------------55555555--------------------:


Chourus x3

G:-------------------------------------------------:
D:-------------------------------------------------:
A:----------------5--------------------------------:
E:5---5---5---2------------------------------------:

After Chourus x3             after 3rd time

G:------------------------|-------------------------:
D:------------------------|-------------------------:
A:77777777-55555555-------|5-4----------------------:
E:------------------------|-------------------------:

Intro x4

G:-------------------------------------------------:
D:-------------------------------------------------:
A:------------55555555-77777777--------------------: Let the last 7 ring
E:555555555555-------------------------------------:
comments
We did not receive enough feedback on this tab! Please rate:
print report bad tab
1 2 3 4 5
I want to post or [tab]
guest
You may want to rate the tab now too:
select rating
Please do not post tabs as comments. Select "correction" instead!